Oops, an error
Loading. Please wait.

Lady Tab

version 2
version 2

Whole song

Interactive

3,270 views 3 this week
no commentswrite comment
1 2 3 4 5
please rate
add to favorites
launch autoscroll
font size
0
reset
how to read this tab
guitar tuner
Tab Pro tools
  • play this tab
  • loop segment
  • change instrument
  • show fretboard
  • metronome
×
Best way to learn
"Lady"
Autoscroll
slow
fast
+/-
esc
set tempo
stop
Contributor
Difficulty
Capo
advanced
6th fret
Tuning : E A D G   Tempo : 126 bpm

Chords : Capo on 6th fret

Intro : Em9 Em7 - Em9 Em7 - Em9 Em7 - Em9 Em7

00:08 (Bass starts)
G-----------|-----------|-----------|-----------|
D-----------|-----------|-----------|-----------|
A-----------|-----------|-----------|-----------|
E-6---6----6|-6---6----6|-6---6----6|-6---6----6|
Em9 Em7 Em9 Em7 Em9 Em7 Em9 Em7
G-----------|-----------|-----------|-----------|
D-----------|-----------|-----------|-----------|
A-----------|-----------|-6---6----6|-6---6-----|
E-2---2----2|-2---2----2|-----------|-----------|
Am6 Am7 Am6 Am7 D7 D7sus4 D7 D7sus4


Verse 1 : 00:23
G-----------|-----------|-----------|-----------|
D-----------|-----------|-----------|-----------|
A-----------|-----------|-----------|-----------|
E-6---6----6|-6---6----6|-6---6----6|-6---6----6|
Em9 Em7 Em9 Em7
Lady hear me tonight
Em9 Em7 Em9 Em7
Coz' my feeling is just so right

G-----------|-----------|-----------|-----------|
D-----------|-----------|-----------|-----------|
A-----------|-----------|-6---6----6|-6---6-----|
E-2---2----2|-2---2----2|-----------|-----------|
Am6 Am7 Am6 Am7
As we dance by the moonlight
D7 D7sus4 D7 D7sus4
Can't you see you're my daylight


VERSE 2 : 00:39
G-----------|-----------|-----------|-----------|
D-----------|-----------|-----------|-----------|
A-----------|-----------|-----------|-----------|
E-6---6----6|-6---6----6|-6---6----6|-6---6----6|
Em9 Em7 Em9 Em7
Lady I just feel like
Em9 Em7 Em9 Em7
I won't get you out of my mind

G-----------|-----------|-----------|-----------|
D-----------|-----------|-----------|-----------|
A-----------|-----------|-6---6----6|-6---6-----|
E-2---2----2|-2---2----2|-----------|-----------|
Am6 Am7 Am6 Am7
I feel love for the first time
D7 D7sus4
And I know that it is true
D7 D7sus4
I can tell by the look in your eyes


INSTRUMENTAL : 00:53
G-----5-3---|-----5-3---|-----------|-----------|
D---3-----3-|---3-----3-|-----6-4---|-----6-4-3-|
A-1---------|-1---------|---4-----4-|---4-------|
E-----------|-----------|-2---------|-2---------|
Em9 Em7 Em9 Em7 Am6 Am7 Am6 Am7
G-----------|-----------|-----5-3---|-----5-3---|
D-1---3--1--|-1---3--1--|---3-----3-|---3-----3-|
A---1-----1-|---1-----1-|-1---------|-1---------|
E-----------|-----------|-----------|-----------|
D7 D7sus4 D7 D7sus4 Em9 Em7 Em9 Em7


G-----5-3---|-----5-3---|-----------|-----------|
D---3-----3-|---3-----3-|-----6-4---|-----6-4-3-|
A-1---------|-1---------|---4-----4-|---4-------|
E-----------|-----------|-2---------|-2---------|
Em9 Em7 Em9 Em7 Am6 Am7 Am6 Am7
G-----------|-----------|-----------|-----------|
D-1---3--1--|-1---3--1--|-----3-----|-----------|
A---1-----1-|---1-----1-|---3---3--4|-----------|
E-----------|-----------|-1---------|-1----1----|
D7 D7sus4 D7 D7sus4 Adim7 Cm6 Baug (x5)


VERSE 3 01:23
G-----------|-----------|-----------|-----------|
D-----------|-----------|-----------|-----------|
A-----------|-----------|-----------|-----------|
E-6---6----6|-6---6----6|-6---6----6|-6---6----6|
Em9 Em7 Em9 Em7
Lady hear me tonight
Em9 Em7 Em9 Em7
Coz' my feeling is just so right

G-----------|-----------|-----------|-----------|
D-----------|-----------|-----------|-----------|
A-----------|-----------|-6---6----6|-6---6-----|
E-2---2----2|-2---2----2|-----------|-----------|
Am6 Am7 Am6 Am7
As we dance by the moonlight
D7 D7sus4 D7 D7sus4
Can't you see you're my daylight


VERSE 4 : 01:39
G-----------|-----------|-----------|-----------|
D-----------|-----------|-----------|-----------|
A-----------|-----------|-----------|-----------|
E-6---6----6|-6---6----6|-6---6----6|-6---6----6|
Em9 Em7 Em9 Em7
Lady i just feel like
Em9 Em7 Em9 Em7
I won't get you out of my mind

G-----------|-----------|-----------|-----------|
D-----------|-----------|-----------|-----------|
A-----------|-----------|-6---6----6|-6---6-----|
E-2---2----2|-2---2----2|-----------|-----------|
Am6 Am7 Am6 Am7
I feel love for the first time
D7 D7sus4
And I know that it is true
D7 D7sus4
I can tell by the look in your eyes


INSTRUMENTAL 2 01:54
G-----5-3---|-----5-3---|-----------|-----------|
D---3-----3-|---3-----3-|-----6-4---|-----6-4-3-|
A-1---------|-1---------|---4-----4-|---4-------|
E-----------|-----------|-2---------|-2---------|
Em9 Em7 Em9 Em7 Am6 Am7 Am6 Am7
G-----------|-----------|-----5-3---|-----5-3---|
D-1---3--1--|-1---3--1--|---3-----3-|---3-----3-|
A---1-----1-|---1-----1-|-1---------|-1---------|
E-----------|-----------|-----------|-----------|
D7 D7sus4 D7 D7sus4 Em9 Em7 Em9 Em7
. . .
G-----5-3---|-----5-3---|-----------|-----------|
D---3-------|---3-------|-----6-4---|-----6-4-3-|
A-1-------4-|-1-------4-|---4-----4-|---4-------|
E-----------|-----------|-2---------|-2---------|
Em9 Em7 Em9 Em7 Am6 Am7 Am6 Am7
G-----------|-----------|-----------|-----------|
D-1---3--1--|-1---3--1--|-----3-----|-----------|
A---1-----1-|---1-----1-|---3---3--4|-----------|
E-----------|-----------|-1---------|-1----1----|
D7 D7sus4 D7 D7sus4 Adim7 Cm6 Baug (x5)


VERSE 5 (vocal part): 02:25 (BASS OPTIONAL)
G-----------|-----------|-----------|-----------|
D-----------|-----------|-----------|-----------|
A-----------|-----------|-----------|-----------|
E-6---6----6|-6---6----6|-6---6----6|-6---6----6|
Em9 Em7 Em9 Em7
Lady hear me tonight
Em9 Em7 Em9 Em7
Coz' my feeling is just so right

G-----------|-----------|-----------|-----------|
D-----------|-----------|-----------|-----------|
A-----------|-----------|-6---6----6|-6---6-----|
E-2---2----2|-2---2----2|-----------|-----------|
Am6 Am7 Am6 Am7
As we dance by the moonlight
D7 D7sus4 D7 D7sus4
Can't you see you're my delight


rIFF 02:40
G-----------|-----------|-----------|-----------|
D-----------|-----------|-----------|-----------|
A-----------|-----------|-----------|-----------|
E-6---6----6|-6---6----6|-6---6----6|-6---6----6|
Em9 Em7 Em9 Em7
Lady I just feel like
Em9 Em7 Em9 Em7
I won't get you out of my mind

G-----------|-----------|-----------|-----------|
D-----------|-----------|-----------|-----------|
A-----------|-----------|-6---6----6|-6---6-----|
E-2---2----2|-2---2----2|-----------|-----------|
Am6 Am7 Am6 Am7
I feel love for the first time
D7 D7sus4
And I know that it is true
D7 D7sus4
I can tell by the look in your eyes


REPRISE : 02:56 (REPEAT TILL FADING)
G-----5-3---|-----5-3---|-----------|-----------|
D---3-----3-|---3-----3-|-----6-4---|-----6-4-3-|
A-1---------|-1---------|---4-----4-|---4-------|
E-----------|-----------|-2---------|-2---------|

G-----------|-----------|-----5-3---|-----5-3---|
D-1---3--1--|-1---3--1--|---3-----3-|---3-----3-|
A---1-----1-|---1-----1-|-1---------|-1---------|
E-----------|-----------|-----------|-----------|
Em9 Em7 Em9 Em7 Adim7 Cm6 Baug (x5)
Lady hear me tonight
Em9 Em7 Em9 Em7
Coz' my feeling is just so right

Finale :
G-----5-3---|-----5-3---|-----------|-----------|
D---3-----3-|---3-----3-|-----6-4---|-----6-4-3-|
A-1---------|-1---------|---4-----4-|---4-------|
E-----------|-----------|-2---------|-2---------|

G-----------|-----------|-----5-3---|-----5-3---|
D-1---3--1--|-1---3--1--|---3-----3-|---3-----3-|
A---1-----1-|---1-----1-|-1---------|-1---------|
E-----------|-----------|-----------|-----------|

Em9 Em7 Em9 Em7 Em9 Em7 Em9 Em7
Lady I just feel like
. . . . . . . . . . . . .
Am6 Am7 Am6 Am7 Adim7 Cm6 Baug (x5)
I feel love for the first time
. . . . . . . . . . . . .
Em9 Em7 Em9 Em7 Am6 Am7 Am6 Am7
Lady hear me tonight
. . . . . . . . . . . . .
D7 D7sus4 D7 D7sus4
Can't you see you're my delight
. . . . . . . . . . . . .
Em9 Em7 Em9 Em7
. . . . . FADING OUT. . .

EBD : 03:44
comments
We did not receive enough feedback on this tab! Please rate:
print report bad tab
1 2 3 4 5
I want to post or [tab]
guest
You may want to rate the tab now too:
select rating
Please do not post tabs as comments. Select "correction" instead!