Oops, an error
Loading. Please wait.

Belinda Tab

by Mods
571 views 1 this week
no commentswrite comment
1 2 3 4 5
please rate
add to favorites
launch autoscroll
font size
0
reset
how to read this tab
guitar tuner
Tab Pro tools
  • play this tab
  • loop segment
  • change instrument
  • show fretboard
  • metronome
Autoscroll
slow
fast
+/-
esc
set tempo
stop
Contributor
Mods – Belinda

***************** NOTE *******************
* I do not own any rights for this song! *
* Song is written and produced by Mods!  *
******************************************

E|----------------------------------------------------------------------|
B|----------------------------------------------------------------------|
G|----------------------------------------------------------------------|
D|---2-2-2-------2-2-2-------2-2-2-------2-2-2-------2-2-2-------2-2-2--|
A|-0-------0-0-0-------0-0-0-------0-0-0-------0-0-0-------0-0-0--------|
E|----------------------------------------------------------------------|

E|--------------------------------------------------------------1-------|
B|----------------------------------------------------------3-1---------|
G|--------2-2-2-------------------------------------------0-------------|
D|------0-------------2-2-2---------------------------------------------|
A|--0-0---------0-0-0-------0-0---2-2-2-------2-2-2---------------------|
E|------------------------------0-------0-0-0-------0-0-0---------------|

E|----------------------------------------------------------------------|
B|----------------------------------------------------------------------|
G|---------------------------2-2-2--------------------------------------|
D|---2-2-2-------2-2-2-----0-------------2-2-2--------------------------|
A|-0-------0-0-0-------0-0---------0-0-0-------0-0---2-2-2-------2-2-2--|
E|-------------------------------------------------0-------0-0-0--------|

E|----------------------------------------------------------------------|
B|----------------------------------------------------------------------|
G|----------------------------------------------------------------------|
D|----------------------------------------------------------------------|
A|-------2-2-2-0-0-0----------------------------------------------------|
E|-0-0-0----------------------------------------------------------------|

Refreng:

E|--2------------2------------2------------2---------------------------|
B|--3--3-----3---3--3-----3---3--3-----3---3--3------------------------|
G|--2--3--1--3---2--3--1--3---2--3--1--3---2--3--1---------------------|
D|-----3--2--3------3--2--3------3--2--3------3--2---------------------|
A|--------2------------2------------2------------2---------------------|
E|---------------------------------------------------------------------|


E|---------------------------------------------------------------------|
B|---------------------------------------------------------------------|
G|---------------------------------------------------------------------|
D|---2-2-2-------2-2-2-------2-2-2-------2-2-2-------2-2-2-------2-2-2-|
A|-0-------0-0-0-------0-0-0-------0-0-0-------0-0-0-------0-0-0-------|
E|---------------------------------------------------------------------|

E|---------------------------------------------------------------------3-|
B|-----------------------------------------------------------------3-1---|
G|---2-2-2---------------------------------------------2-2-2-----0-------|
D|-0-------------2-2-2-------------------------------0-------0-0---------|
A|---------0-0-0-------0-0---2-2-2-------2-2-2---------------------------|
E|-------------------------0-------0-0-0-------0-0-0---------------------|

E|---------------------------------------------------------------|
B|---------------------------------------------------------------|
G|-----------------------2-2-2-----------------------------------|
D|---2-2-2-------2-2-2-0-------------2-2-2-----------------------|
A|-0-------0-0-0---------------0-0-0-----0-0---2-2-2-------2-2-2-|
E|-------------------------------------------0-------0-0-0-------|



E|----------------------------------------------------------------|
B|----------------------------------------------------------------|
G|----------------------------------------------------------------|
D|----------------------------------------------------------------|
A|-------2-2-2-0-0-0----------------------------------------------|
E|-0-0-0----------------------------------------------------------|



Refreng:

E|--2------------2------------2------------2----------------------|
B|--3--3-----3---3--3-----3---3--3-----3---3--3-----3-------------|
G|--2--3--1--3---2--3--1--3---2--3--1--3---2--3--1--3-------------|
D|-----3--2--3------3--2--3------3--2--3------3--2--3-------------|
A|--------2------------2------------2------------2----------------|
E|----------------------------------------------------------------|

Gitar 1:
E|--2----------------2--------------------------------------------|
B|--3---3-------3----3---3-------3--------------------------------|   x 2
G|--2---3---1---3----2---3---1---3--------------------------------|   
D|------3---2---3--------3---2---3--------------------------------|
A|----------2----------------2------------------------------------|
E|----------------------------------------------------------------|

Gitar 2:

E|-4-2-0-2--------------------------------------------------------|
B|---------4-0-2-0-2-0-4--0-2-5-4-2-5-4-0-2-0-2-4-0---------------|    x 2
G|----------------------------------------------------------------|
D|----------------------------------------------------------------|
A|----------------------------------------------------------------|
E|----------------------------------------------------------------|


E|---------------------------------------------------------------------|
B|---------------------------------------------------------------------|
G|---------------------------------------------------------------------|
D|---2-2-2-------2-2-2-------2-2-2-------2-2-2-------2-2-2-------2-2-2-|
A|-0-------0-0-0-------0-0-0-------0-0-0-------0-0-0-------0-0-0-------|
E|---------------------------------------------------------------------|

E|---------------------------------------------------------------------3-|
B|-----------------------------------------------------------------3-1---|
G|---2-2-2---------------------------------------------2-2-2-----0-------|
D|-0-------------2-2-2-------------------------------0-------0-0---------|
A|---------0-0-0-------0-0---2-2-2-------2-2-2---------------------------|
E|-------------------------0-------0-0-0-------0-0-0---------------------|

E|---------------------------------------------------------------------|
B|---------------------------------------------------------------------|
G|-----------------------2-2-2-----------------------------------------|
D|---2-2-2-------2-2-2-0-------------2-2-2-----------------------------|
A|-0-------0-0-0---------------0-0-0-------0-0---2-2-2-------2-2-2-----|
E|---------------------------------------------0-------0-0-0-----------|

E|---------------------------------------------------------------------|
B|---------------------------------------------------------------------|
G|---------------------------------------------------------------------|
D|---------------------------------------------------------------------|
A|-------2-2-2-0-0-----------------------------------------------------|
E|-0-0-0---------------------------------------------------------------|

Refreng:
E|--2------------2------------2------------2---------------------------|
B|--3--3-----3---3--3-----3---3--3-----3---3--3-----3------------------|
G|--2--3--1--3---2--3--1--3---2--3--1--3---2--3--1--3------------------|
D|-----3--2--3------3--2--3------3--2--3------3--2--3------------------|
A|--------2------------2------------2------------2---------------------|
E|---------------------------------------------------------------------|

E|---------------------------------------------------------------------|
B|------------------------3--------------------------------------------|
G|------------------------3--------------------------------------------|
D|---2-2-2-------2-2-2----3--------------------------------------------|
A|-0-------0-0-0-------0-----------------------------------------------|
E|---------------------------------------------------------------------|

Tabs by: Eveneiedeg
comments
We did not receive enough feedback on this tab! Please rate:
print report bad tab
1 2 3 4 5
I want to post or [tab]
guest
You may want to rate the tab now too:
select rating
Please do not post tabs as comments. Select "correction" instead!