Oops, an error
Loading. Please wait.

Luz Errante Chords

82 views 3 this week
no commentswrite comment
1 2 3 4 5
2 more votes to show rating
add to favorites
launch autoscroll
font size
0
reset
transpose
0
reset
simplify chords
display chords
guitar tuner
Autoscroll
slow
fast
+/-
esc
set tempo
stop
Help us to improve Ultimate-Guitar.com Take our survey!
×
Gbm
     Eres como luz errante
E6
     Que camina noche y día
Gbm
     Que al pasar le sopla el viento
E/Db
     Y el deseo te ilumina
Gbm             E   E-F-Gbm
     Haaa hooooo

Gbm
     Ya no quiero que me mires
E/Db
     Ni tan poco que sonrías
Gbm
     Lo que quiero es que te olvides
E/Db
     De mi amor yo te quería
Gbm             E/Db
     Haaa  hooooo

Gbm
    Yo creí ser muy distinto
E/Db
    Yo creí en tu alegría
Gbm
    Yo creí ser el destino
E/Db
    Que te amase noche y día
    Gbm        E         E   F#  Abm
    Haaa  hooooo         ha  ha  ha


    Y tan solo fui la huella
Gbm                        Gbm-G-Abm
    Que pasa por tu camino

    Que al pasar la borra el viento
Gbm           B              E      E  F# Abm
    B llegar así A su destino      ha ha ha

    Yo creí ser muy distinto
Gbm
    Yo creí que me querías
Abm
    Que era largo tu camino
Gbm              B              E
    Para empezar juntos otra vida
                  Gbm  E6
    Ho o, o o o o.


Punteo Órgano, Pasado A Guitarra
   Gb              E/Db
E|-------------------4-4------------||
B|------------5-5-7-4----7-5-4------||
G|--------4-6------------------6-4--||Repetir
D|--4-4-7-------------------------4-||
A|----------------------------------||
E|----------------------------------||


Gbm
    Yo creí ser muy distinto
E/Db
    Yo creí en tú alegría
Gbm
    Yo creí ser el destino
E/Db
    Que te amase noche y día

Acordes:
         Gbm/F#m   E    E6   E/Db  Abm/G#m   F    F#
   E|-------2------0----0------4------4------1----2--
   B|-------2------0----2------5------4------1----2--
   G|-------2------1----1------4------4------2----3--
   D|-------4------2----2------6------6------3----4--
   A|-------4------2----2------4------6------3----4--
   E|-------2------0----0------x------4------1----2--
Suggest correction
Give kudos to tab author, rate the tab!
1 2 3 4 5
comments
print report bad tab
guest
You may want to rate the tab now too:
select rating
Wanna post a correction for this tab? Suggest correction