Oops, an error
Loading. Please wait.

Otra Vez Tab

23 views 1 this week
no commentswrite comment
1 2 3 4 5
3 more votes to show rating
add to favorites
launch autoscroll
font size
0
reset
how to read this tab
guitar tuner
×
Best way to learn
"Otra Vez"
Autoscroll
slow
fast
+/-
esc
set tempo
stop
Modulos: Otra Vez

       Am        C             G
  E|----0---0--0-----0----0------3-----3-3-2-0-
  B|----1---1--1-----1----1------3-----3-3---3-
  G|----2---2--2-----0----0------4-----4-2---2-
  D|------2------------2---------5-----5-0---0-
  A|--0------0--0-2-3----3-3-2-0-5----5--------
  E|-----------------------------3---3---------
             Am    C       G
  E|---------0------0-------3-
  B|---------1------1-------3-
  G|---------2------2-------4-
  D|---------2--------------5-
  A|--2-3-2-0-0-2-3---3-2-0-5-
  E|------------------------3-

Am                  C                     G
Puede ser que otra vez, halla un Mundo mejor
                    D     Am
En que estemos tú y Yo.
                     C                    G
Sé muy bien que otra vez, al volver a empezar
               D      Am
Me podrías querer.
                    C                  G
Puede ser que otra vez, al volver a nacer
           D      Am
Todo sea mejor
                     C                    G
Sé muy bien que otra vez, me podría encontrar
               D
Me podrías querer.

Estribillo:

Am          C             G          Em
Más hoy te ofrezco lo que tengo a a a.
Am           C               G          Em   D
   Con mis defectos y mis sueños  a a a.
                   Am           C     D
Estas cosas forman hoy parte de mí
                   Am        C      D     G
Y no sé si es poca cosa para ti a a a.

Punteo

          Am    C       G             D  Am   C     G
B|----------------------------------------------------
G|------7-545454---------------------------5-454------
D|-----5--------5-55-454------7-5-4-5-4---5-----5-4-5-
A|--5-7-----------------5-5-7------------7------------

Repetir
Suggest correction
Give kudos to tab author, rate the tab!
1 2 3 4 5
comments
print report bad tab
guest
You may want to rate the tab now too:
select rating
Wanna post a correction for this tab? Suggest correction