Oops, an error
Loading. Please wait.

Bring You Down Tab

version 2
version 2

Whole song

by Moe.
441 views 3 this week
no commentswrite comment
1 2 3 4 5
please rate
add to favorites
launch autoscroll
font size
0
reset
how to read this tab
guitar tuner
Tab Pro tools
  • play this tab
  • loop segment
  • change instrument
  • show fretboard
  • metronome
×
Best way to learn
"Bring You Down"
Autoscroll
slow
fast
+/-
esc
set tempo
stop
Contributor
Difficulty
intermediate
-----------------------------------------------------------------------------
                             Bring You Down – moe.
-----------------------------------------------------------------------------

Got tired of not finding this anywhere...decided to do it myself.

Enjoy  - Ray

Tabbed by:raystyle88
E-mail:rachenba@gmail.com

Tuning:Standard E A D G B E


Intro:
Gtr. 1 – Slight Distortion

e|-------12------------------10----------------------------------------------|
B|---------12----------------------------17----------------------------------|
G|11b(13)-----(13)r11----12--------16b(18)—(18)r16-14/13h14p13---------------|
D|--------------------12--------------------------------------14-------------|
A|--------------------------------------------------------------14/12p11-----|
E|---------------------------------------------------------------------------|

e|--------12-----------------------------------------------------------------|
B|---------------------------------------------------------------------------|
G|-11b(13)---(13)r11p9h11b(12)-(12)pbr11-9-11~--9----9--9---9---------9------|
D|----------------------------------------------9h11-11-11--9—-11/9---9------|
A|-------------------------------------------------------------12/11—11------|
E|---------------------------------------------------------------------------|
Gtr. 2 – slight dist.
        
Intro: E Bm D A (same as verse)

verse
e|---------------------------------------------------------------------------|
B|---------------------------------------------------------------------------|
G|-9----9p7--7----7-------7---7h9p7--7---6-6h7/9~----------------------------|
D|-9-------7--------9-----7---------9----7-----------------------------------|
A|-7-7----------9-----7/5---5------------7-----------------------------------|
E|-0------------7------------------------5-----------------------------------


CHORUS – E Bm D E

BRIDGE

e|---------------------------------------------------------------------------|
B|---------------------------------------------------------------------------|
G|---------9--------------------------7-7------------------------------------|
D|-------9—9h11p9-9--9----------------7-7h9p7—--9/7-------------(x2)---------|
A|-7-9/11------------11h12p11p9—--7/9--------9-11/9—7~-----------------------|
E|-0----------------------------7~-------------------------------------------|

SOLO

e|---------------------------------------------------------------------------|
B|---------------9------(12)-------------------------------12----------------|
G|---------9-----9h11p9-----11b(13)r11~--11b(13)r11b(13)r11---(13)pbr11—9~---|
D|---------9h11p9------------------------------------------------------------|
A|----7h9/11-----------------------------------------------------------------|
E|--0------------------------------------------------------------------------|

e|---------------------------------------------------------------------------|
B|-----------------------------------------------------------------17--------|
G|-9------9--9-----9---9----------7---------------------x--13h14h16-16b(18)~-|
D|-11p9---9—11p9---9---9-----9/7--7-----7-------------x-14h16p14-------------|
A|-----11--------11----9h11—11/9—-7h9p7—9--9/7--------14h16p14---------------|
E|-------------------------------------------10~---12h14h16------------------|

e|---------------------------------------------------------------------------|
B|--17-------(17)--------------15~15~15p14-----15~15~15p14-------------------|
G|--16b(18)~-----(18)r16p14--16-----------16--x------------------------------|
D|-------------------------------------------x-------------------------------|
A|---------------------------------------------------------------------------|
E|---------------------------------------------------------------------------|

e|-----------------------------12------12----12-------12---------------------|
B|--15p14p12—15p14p12-15p14p12-15b(17)~(17)~-15b(17)--(17)—15b(17)~----------|
G|---------------------------------------------------------------------------|
D|---------------------------------------------------------------------------|
A|---------------------------------------------------------------------------|
E|---------------------------------------------------------------------------|

e|---------------------------------------------------------------------------|
B|----x---------------9-----------------x----------------9-------------------|
G|----7h9-9-9-9-7h9-9—--9-9-7h9-9-9-----7h9-9-9-9-7h9-9----—9-9-7h9-9-9------|
D|----------------------------------9~----------------------------------9~---|
A|---------------------------------------------------------------------------|
E|---------------------------------------------------------------------------|


Structure

Intro x 1 

V1 – E Bm D A

I don’t wanna go to Duluth
I just wanna leave this town
I don’t wanna know the truth
I just wanna bring you down
        Here with me
V2 – E Bm D A

I don’t wanna go home now
I just wanna come home soon
I don’t wanna go home now 
I just wanna come home soon
        
Chorus – E Bm D E
        Hear me
        Hear me 
        Hear me

Intro x1





V3 – E Bm D A

I don’t wanna drive all night
I just wanna go to sleep
I don’t wanna lie all night
I just wanna go to sleep
        Hear me

V4 – E Bm D A

I don’t wanna sleep all day
I just wanna go home now
I don’t wanna lead the way
I just wanna go home now

Chorus1 – E Bm D E

        Be with me
        Be with me
        Be with me

Chorus2- E Bm D E (with chorus1 alongside backing vocals)

I don’t wanna go home soon
I just wanna go home now
I don’t wanna go home soon
I just wanna go home now

BRIDGE > SOLO

Chorus2 

Intro / Wind down to closure




************************************

| /   slide up
| \   slide down
| h   hammer-on
| p   pull-off
| ~   vibrato
| +   harmonic
| x   Mute note
| b   Bend
| pb  Pre-bend
| br  Bend release
| pbr Pre-bend release
| brb Bend release bend

************************************

comments
We did not receive enough feedback on this tab! Please rate:
print report bad tab
1 2 3 4 5
I want to post or [tab]
guest
You may want to rate the tab now too:
select rating
Please do not post tabs as comments. Select "correction" instead!