Oops, an error
Loading. Please wait.

Silver Sun chords

by Moe.
719 views 3 this week
no commentswrite comment
1 2 3 4 5
1 last vote to show rating
add to favorites
×
Save as Personal and add changes to this tab that will be seen only by you. Learn more ›
×
You can save this tab as Personal to edit and correct it or add notes. All changes will be seen only by you. Learn more »
launch autoscroll
font size
0
reset
transpose
0
reset
simplify chords
display chords
guitar tuner
edit
Autoscroll
slow
fast
+/-
esc
set tempo
stop
Author
Difficulty
Strumming
There is no strumming pattern for this song yet. and get +5 IQ
-------------------------------------------------------------------------------
                             Silver Sun - Moe.
-------------------------------------------------------------------------------
Tabbed by: Hunter Bauer  6/29/2015
E-mail: bauerhunter11@gmail.com

Timings taken from "No Guts No Glory" Album

Intro Jam 0:00-4:08:
        1 + 2 + 3 + 4 + 1 + 2 + 3 + 4 +
          Am  D5          Am  D5  C
e|--------0---------------0-------0--------------------------------------|
B|--------1---3-----------1---3---1--------------------------------------|
G|--------2---2-----------2---2---0--------------------------------------|
D|--------2---0-----------2---0---2--------------------------------------|
A|--------0---------------0-------3--------------------------------------|
E|-----------------------------------------------------------------------|

Solo over these chords in A Dorian

This riff is repeated a few times starting at 3:30 (acts as a indicator to move to next section)
e|---------------------------------------------------------------------------|
B|-----------8~~~----8-10----------------------------------------------------|
G|--------/9-------/9-----9p7---------7--------------------------------------|
D|----------------------------10--7h10--7------------------------------------|
A|---------------------------------------------------------------------------|
E|---------------------------------------------------------------------------|

The following chords lead into the verse section at 4:08:
Em > F > Ab > G

C
Slowly on the silver sun swept
Em
Fields are falling away
F
Heiroglyphics hide & seek
G                 F
Inside the sky of yesterday

C
Watching while the windowpane
Em
Drips into the dresser drawers
F
Finding faces far too strange
G             F
Pondering the pouring rain

C
The sun beats down on silver spaceships
Em
Hovering above the ground
F
Shadows shooting shining round
G                F
Wonder where the world is now

C
Leaving light & lying low
Em
Breathing bright & evenflow
F
Picture pixels picking time
G              Ab             Am (First chord of the 5:04 Section)
Light the grid along the line


The verses are all the same except the last one has the Ab that serves
as a chromatic motion back to Am

Jam at 5:04:
Am > F
Solo in Am Pentatonic

At 7:45 use that same riff from above a few times

At 8:15 do this chord sequence again:
Em > F > Ab > G

Those chords lead into a simple C > F while playing that riff still

End on: G > Ab > A

            
            
Suggest correction
Creating personal tab
Creating personal tab
You can edit any tab online and save it as your Personal.

You can edit, replace or remove any tab part or add personal notes – all changes will be seen only by you.

Personal tabs can be accessed anytime from any device, even offline.
Learn more »
Give kudos to tab author, rate the tab!
1 2 3 4 5
comments
print report bad tab
guest
You may want to rate the tab now too:
select rating
Wanna post a correction for this tab? Suggest correction