Oops, an error
Loading. Please wait.

En Algun Lugar Bass

by Moenia
36 views 1 this week
no commentswrite comment
1 2 3 4 5
3 more votes to show rating
add to favorites
launch autoscroll
font size
0
reset
guitar tuner
×
Best way to learn
"En Algun Lugar"
Autoscroll
slow
fast
+/-
esc
set tempo
stop
INTRO

G------------------------------------------
D------------------------------------------
A---10-9-7/(2)--3---3---3-3-3-3-3-3-3-3----
E------------------------------------------

G----------------------------------------
D----------------------------------------
A------------5--5-5---7--7-7---3--3-3----
E---3--3-3-------------------------------

G----------------------------------------
D----------------------------------------
A------------5--5-5---7--7-7---3--3-3----
E---3--3-3-------------------------------

EN ALGUN LUGAR DE UN GRAN PAIS....

G----------------------------------------
D----------------------------------------
A-----------------5-----------------5----
E---0--0-0---3--3-----0--0-0---3--3------

G----------------------------------------
D----------------------------------------
A-----------------5-----------------5----
E---0--0-0---3--3-----0--0-0---3--3------

G----------------------------------------
D----------------------------------------
A-----------------5-----------------5----
E---0--0-0---3--3-----0--0-0---3--3------

G----------------------------------------
D----------------------------------------
A-----------------5-----------------5----
E---0--0-0---3--3-----0--0-0---3--3------

Y EN LAS SOMBRAS.....

G-----------------------------------------------------
D-----------------------------------------------------
A------------2--2-2---3--3-3--10-9-7--7-7---2--2-2----
E---0--0-0--------------------------------------------

G----------------------------------------
D----------------------------------------
A---3--3-3---3--3-3---3--3-3---3--3-3----
E----------------------------------------

G----------------------------------------
D----------------------------------------
A------------5--5-5---7--7-7---3--3-3----
E---3--3-3-------------------------------

G----------------------------------------
D----------------------------------------
A------------5--5-5---7--7-7---3--3-3----
E---3--3-3-------------------------------

NO HAY CAMINO QUE....

G----------------------------------------
D----------------------------------------
A------------5--5-5---7--7-7---3--3-3----
E---3--3-3-------------------------------

G----------------------------------------
D----------------------------------------
A------------5--5-5---7--7-7---3--3-3----
E---3--3-3-------------------------------

PRE-SOLO

G----------------------------------
D----------------------------------
A--------------5--------------5----
E---000---3--3-----000---3--3------

G-------------------------
D-------------------------
A--------------5----------
E---000---3--3-----000----

SOLO

G----------------------------------------
D----------------------------------------
A--------5-----------------5-------------
E---3--3-----0--0-0---3--3-----0--0-0----

G----------------------------------------
D----------------------------------------
A--------5-----------------5-------------
E---3--3-----0--0-0---3--3-----0--0-0----

G-------------------
D-------------------
A--------5----------
E---3--3-----000----

EN ALGUN LUGAR DE UN GRAN PAIS....

G----------------------------------------
D----------------------------------------
A-----------------5-----------------5----
E---0--0-0---3--3-----0--0-0---3--3------

G----------------------------------------
D----------------------------------------
A-----------------5-----------------5----
E---0--0-0---3--3-----0--0-0---3--3------

G----------------------------------------
D----------------------------------------
A-----------------5-----------------5----
E---0--0-0---3--3-----0--0-0---3--3------

G----------------------------------------
D----------------------------------------
A-----------------5-----------------5----
E---0--0-0---3--3-----0--0-0---3--3------

UN SILBIDO....

G-----------------------------------------------------
D-----------------------------------------------------
A------------2--2-2---3--3-3--10-9-7--7-7---2--2-2----
E---0--0-0--------------------------------------------

G----------------------------------------
D----------------------------------------
A---3--3-3---3--3-3---3--3-3---3--3-3----
E----------------------------------------

Y LA TIERRA AQUI....

G----------------------------------------
D----------------------------------------
A------------5--5-5---7--7-7---3--3-3----
E---3--3-3-------------------------------

G----------------------------------------
D----------------------------------------
A------------5--5-5---7--7-7---3--3-3----
E---3--3-3-------------------------------

G----------------------------------------
D----------------------------------------
A------------5--5-5---7--7-7---3--3-3----
E---3--3-3-------------------------------

G----------------------------------------
D----------------------------------------
A------------5--5-5---7--7-7---3--3-3----
E---3--3-3-------------------------------

NA, NANANANANA....

G----------------------------------------
D----------------------------------------
A------------5--5-5---7--7-7---3--3-3----
E---3--3-3-------------------------------

G----------------------------------------
D----------------------------------------
A------------5--5-5---7--7-7---3--3-3----
E---3--3-3-------------------------------

G----------------------------------------
D----------------------------------------
A------------5--5-5---7--7-7---3--3-3----
E---3--3-3-------------------------------

G----------------------------------------
D----------------------------------------
A------------5--5-5---7--7-7---3--3-3----
E---3--3-3-------------------------------

G----------
D----------
A----------
E---000----
Suggest correction
Give kudos to tab author, rate the tab!
1 2 3 4 5
comments
print report bad tab
guest
You may want to rate the tab now too:
select rating
Wanna post a correction for this tab? Suggest correction