Oops, an error
Loading. Please wait.

Relative Hysteria guitar pro

by Mogwai
40 views 3 this week
1 commentread comment
1 2 3 4 5
1 last vote to show rating
add to favorites
guitar tuner
Autoscroll
slow
fast
+/-
esc
set tempo
stop
"Relative Hysteria"
demo version
Play now

or get full version for Free

×
Get full version now!
Learn and play this song
in Tab Pro
Try for free

or get $10 off Welcome Bonus

Get welcome bonus
Get access to Tab Pro version of “Relative Hysteria”!
Tab Pro is a premium guitar tab service, available on PC, Mac, iOS and Android
TRY FOR FREE
Your download will start in 7 seconds
×
Like this song? We have more! Follow us on Facebook for daily tips, lessons and other guitar-related content.
To download “Relative Hysteria” Guitar Pro tab click button below
Please note that you must have Guitar Pro software installed on your
computer in order to view this file.
Suggest correction
Give kudos to tab author, rate the tab!
1 2 3 4 5
comments
report bad tab
1 comment total.
0 reply
aladin111 2,048 Aug 02, 2017 08:21 AM

A 4 for the effort, but still some little mistakes : for ex. measure 1 pista 1 ( and also firther :

e----------------|
b--------------5-|
g------6---8-----|
d--7-------------|
a0---0---0---0---| the 7 (A ) should be a B
e----------------|

i play it this way

e--------------0-|
b----------4---5-|
g--4---6---------|
d----------------|
a0---0---0---0---|
e----------------|

Pista 2 measure 17 should be played ( from what i hear ):

E|----------------|--7-----9-7---14|12------9-------|
B|--0---7-5---9-7-|----9-----------|----------------|
G|6---------------|----------------|----------------|
D|----------------|----------------|----------------|
A|----------------|----------------|----------------|
E|----------------|----------------|----------------|

And still some minor mistakes. But : keep on the tabbing !

guest
You may want to rate the tab now too:
select rating