Oops, an error
Loading. Please wait.

Planes tab

358 views 15 this week
no commentswrite comment
1 2 3 4 5
2 more votes to show rating
add to favorites
×
Save as Personal and add changes to this tab that will be seen only by you. Learn more ›
×
You can save this tab as Personal to edit and correct it or add notes. All changes will be seen only by you. Learn more »
launch autoscroll
font size
0
reset
how to read this tab
guitar tuner
edit
Autoscroll
slow
fast
+/-
esc
set tempo
stop
Standard tuning. Capo on 8th fret.
Guide: https://soundcloud.com/nico-kristine/planes-moira-nieman-guitar

[Intro]
e|-----------------------------------|
B|-------------------0---------------|
G|-------0h2-------------------------|
D|---------------------------0-------|   x4
A|-----------------------------------|
E|-------3-------3-------3-------3---|

e|-----------------------------------|
B|-------------------0---------------|
G|-------0h2-------------------------|
D|---------------------------2-------|   x4
A|-------3-------3-------3-------3---|
E|-----------------------------------|

[Verse]
e|-----------------------------------|
B|-------------------0---------------|
G|-------0h2-------------------------|
D|---------------------------0-------|   x4
A|-----------------------------------|
E|-------3-------3-------3-------3---|

e|-----------------------------------|
B|-------------------0---------------|
G|-------0h2-------------------------|
D|---------------------------2-------|   x4
A|-------3-------3-------3-------3---|
E|-----------------------------------|

Soon you'll be 
In between heaven and me
Apologies if I seem unwilling 
It's hard for me to watch you leave 

[Refrain]

e|-----------------------------------|
B|-------------------0---------------|
G|-------0h2-------------------------|
D|---------------------------0-------|   x4
A|-----------------------------------|
E|-------3-------3-------3-------3---|

e|-----------------------------------|
B|-------------------0---------------|
G|-------0h2-------------------------|
D|---------------------------2-------|   x4
A|-------3-------3-------3-------3---|
E|-----------------------------------|

Distance may make the heart grow fonder 
But I'm just trying to keep you longer



e|------------------------------|
B|------------------------------|
G|----0h2---2h3---2p0-----------|
D|----------------------2p0-----|               
A|----3-------------------------|
E|------------------------------|

[Chorus]
C G Em G
C G C C

e|-----|       e|-----|        e|-----|        e|-----|
B|--1--|       B|--3--|        B|-----|        B|--3--|
G|-----|       G|-----|        G|-----|        G|-----|
D|--2--|       D|-----|        D|--2--|        D|-----|
A|--3--|       A|--2--|        A|--2--|        A|--2--|
E|-----|       E|--3--|        E|-----|        E|--3--|

e|-----|       e|-----|        e|-----|        e|-----|
B|-----|       B|--3--|        B|--1--|        B|--1--|
G|-----|       G|-----|        G|-----|        G|-----|
D|--2--|       D|-----|        D|--2--|        D|--2--|
A|--2--|       A|--2--|        A|--3--|        A|--3--|
E|-----|       E|--3--|        E|-----|        E|-----|

Cause if I just let you go
Without ever letting you know
It would be hard to keep moving 
With all the loose ends we've left unsewn

[Verse]
e|-----------------------------------|
B|-------------------0---------------|
G|-------0h2-------------------------|
D|---------------------------0-------|   x4
A|-----------------------------------|
E|-------3-------3-------3-------3---|

e|-----------------------------------|
B|-------------------0---------------|
G|-------0h2-------------------------|
D|---------------------------2-------|   x4
A|-------3-------3-------3-------3---|
E|-----------------------------------|

Your gravity is making it hard for me to leave 
Recklessly abandoning all that's been known to me 

[Refrain]
e|-----------------------------------|
B|-------------------0---------------|
G|-------0h2-------------------------|
D|---------------------------0-------|   x4
A|-----------------------------------|
E|-------3-------3-------3-------3---|

e|-----------------------------------|
B|-------------------0---------------|
G|-------0h2-------------------------|
D|---------------------------2-------|   x4
A|-------3-------3-------3-------3---|
E|-----------------------------------|

Distance may make the heart grow fonder
But I'm just trying to keep you longer 
Even if I'm not sure it'll make us stronger

e|------------------------------|
B|------------------------------|
G|----0h2---2h3---2p0-----------|
D|----------------------2p0-----|               
A|----3-------------------------|
E|------------------------------|

[Chorus 2]
C G Em G
C G C D

e|-----|       e|-----|        e|-----|        e|-----|
B|--1--|       B|--3--|        B|-----|        B|--3--|
G|-----|       G|-----|        G|-----|        G|-----|
D|--2--|       D|-----|        D|--2--|        D|-----|
A|--3--|       A|--2--|        A|--2--|        A|--2--|
E|-----|       E|--3--|        E|-----|        E|--3--|

e|-----|       e|-----|        e|-----|        e|--x--|
B|-----|       B|--3--|        B|--1--|        B|--3--|
G|-----|       G|-----|        G|-----|        G|--2--|
D|--2--|       D|-----|        D|--2--|        D|-----|
A|--2--|       A|--2--|        A|--3--|        A|-----|
E|-----|       E|--3--|        E|-----|        E|-----|

Cause if I just let you go
Without ever letting you know
It would be hard to keep moving 
With all the loose ends we've left unsewn 

Should I try to let you know 
How it kills me that you let me go 
Baby, it's hard to keep waiting
With all the feelings we've left unknown

[Bridge]
Em G C D
Em G C D

e|-----|       e|-----|        e|-----|        e|--x--|
B|-----|       B|--3--|        B|--1--|        B|--3--|
G|-----|       G|-----|        G|-----|        G|--2--|
D|--2--|       D|-----|        D|--2--|        D|-----|
A|--2--|       A|--2--|        A|--3--|        A|-----|
E|-----|       E|--3--|        E|-----|        E|-----|

My head is in the clouds, now, so are you
I left my heart on the ground along with you 
This space is creeping in and I don't know what to do
Now, let this love take flight 
Take me back, take me back to you

[Chorus 2]
e|-----|       e|-----|        e|-----|        e|-----|
B|--1--|       B|--3--|        B|-----|        B|--3--|
G|-----|       G|-----|        G|-----|        G|-----|
D|--2--|       D|-----|        D|--2--|        D|-----|
A|--3--|       A|--2--|        A|--2--|        A|--2--|
E|-----|       E|--3--|        E|-----|        E|--3--|

e|-----|       e|-----|        e|-----|        e|--x--|
B|-----|       B|--3--|        B|--1--|        B|--3--|
G|-----|       G|-----|        G|-----|        G|--2--|
D|--2--|       D|-----|        D|--2--|        D|-----|
A|--2--|       A|--2--|        A|--3--|        A|-----|
E|-----|       E|--3--|        E|-----|        E|-----|

Cause if I just let you go
Without ever letting you know
It would be hard to keep moving 
With all the loose ends we've left unsewn

Outro same as Intro but end on a strum with G


***********************************
| h   Hammer-on
| p   Pull-off
| x   Dead note
***********************************

            
            
Suggest correction
Creating personal tab
Creating personal tab
You can edit any tab online and save it as your Personal.

You can edit, replace or remove any tab part or add personal notes – all changes will be seen only by you.

Personal tabs can be accessed anytime from any device, even offline.
Learn more »
Give kudos to tab author, rate the tab!
1 2 3 4 5
comments
print report bad tab
guest
You may want to rate the tab now too:
select rating
Wanna post a correction for this tab? Suggest correction