Oops, an error
Loading. Please wait.

Te Felicito Chords

version 2
version 2

Whole song

27 views 1 this week
no commentswrite comment
1 2 3 4 5
3 more votes to show rating
add to favorites
launch autoscroll
font size
0
reset
transpose
0
reset
simplify chords
display chords
guitar tuner
Autoscroll
slow
fast
+/-
esc
set tempo
stop
Help us to improve Ultimate-Guitar.com Take our survey!
×
Intro
Esta es una correccion a la vercion ya existente.


1--2-2-2-2-0-----0-2-0---2-0--------------------
2------------4-4-------4-----4-2-0--------------
3-----------------------------------------------
4-----------------------------------------------
5-----------------------------------------------
6------------------------------------------------

1-----------------2-----------------------------2-
2-0-2-4-2-0-4-2-0----------0-2-0--------------4---
3--------------------2-2-2------------------4-----
4----------------------------------------4--------
5---------------------------------------2---------
6------------------------------------2------------


      B
Ella fue para mi
      G#m
Mi primera ilusion
      E
Mi primer gran amor
        F#
Fue mi todo.
     B
Yo nunca comprendi
      G#m
El porque su tracion
         E
Si la amaba en verdad
         F#
De mil modos.
        E
Y del brazo de el la mire
     B
Caminar en verdad muy feliz
        C#7
Y una nube de bellos recuerdos
         F#
Me hiso llorar.
        E
Ahora cuenta se de de su error
      B
Ese hombre la abandono
       E
Lo quisiera tener
         F#               F#7
Frente a frente y decirle
      B
Te felicito
                           G#m
Por hacerla sufrir con tus besos
                     E
Ella solo merece desprecios
     C#7              F#     F#7
Ha jugado con mi corazon.
      B
Te felicito

Pues por ella y por poco y
    G#m
Me mato, por las noches al
          E
Ver su retrato.
         C#7                F#
Como un loco llore por su amor
      B     G#m-E-C#7-F#
Te felicito.
Suggest correction
Give kudos to tab author, rate the tab!
1 2 3 4 5
comments
print report bad tab
guest
You may want to rate the tab now too:
select rating
Wanna post a correction for this tab? Suggest correction