Oops, an error
Loading. Please wait.

This Road Im Travelling chords

25 views 1 this week
no commentswrite comment
1 2 3 4 5
3 more votes to show rating
add to favorites
×
Save as Personal and add changes to this tab that will be seen only by you. Learn more ›
×
You can save this tab as Personal to edit and correct it or add notes. All changes will be seen only by you. Learn more »
launch autoscroll
font size
0
reset
transpose
0
reset
simplify chords
display chords
guitar tuner
edit
Autoscroll
slow
fast
+/-
esc
set tempo
stop
Author
Difficulty
Strumming
There is no strumming pattern for this song yet. and get +5 IQ
[Notes]
Tuned: E A D G B d

[Verse/Interlude/Intro/Outro Chords]

      D        Dsus4     Cadd2       G
d|----0----|----0----|----0----|----0----|
B|----10---|----10---|----8----|----3----|
G|----11---|----12---|----9----|----4----|
D|----12---|----12---|----10---|----5----|
A|----0----|----0----|----10---|----5----|
E|----x----|----x----|----x----|----x----|


[Chorus Chords]

      D        Cadd2     
d|----0----|----0----|
B|----3----|----1----|
G|----2----|----0----|
D|----0----|----2----|
A|----x----|----3----|
E|----x----|----x----|

[Riff]               

d|----------------------|
B|----------------------|
G|----------------------|
D|-------------------0--|
A|-3--2--0--------------|
E|----------3--2--0-----|

[Intro]
D Cadd2 G Dsus4


[Verse 1]
D
There's a place I know
          Cadd2
Where you can't look down
                  G 
Yeah it makes you feel alive
             D         Dsus4
It makes you feel alive
D
This road I'm traveling
            Cadd2
It don't do me no good
                 G
'Cept to make me feel alone
                D          Dsus4
Yeah to make me feel alone

[Verse 2]
D
I try so hard
                Cadd2
Yeah you know I try so hard
                 G
Just to make you feel alright
                 D           Dsus4
Yeah to make you feel alright

[Chorus]
D             Cadd2
But you gotta roll away
               D
Yeah you gotta roll, 
               Cadd2    
Yeah you gotta roll away

[Riff]
d|----------------------|
B|----------------------|
G|----------------------|
D|-------------------0--|
A|-3--2--0--------------|
E|----------3--2--0-----|

          D
You gotta roll

[Interlude]
D Cadd2 G Dsus4

[Verse 3]
D
I take my chances
                 Cadd2
Yeah I take them every day
             G
But it don't do no good
            D         Dsus4
No it don't do no good

[Verse 4]
D
And I feel like rolling
          Cadd2
Moving on down the line
         G
I got to see what's out there
          D              Dsus4
I got to take what's mine

[Chorus]
D             Cadd2
But you gotta roll away
               D
Yeah you gotta roll
               Cadd2    
Yeah you gotta roll away

[Riff]
d|----------------------|
B|----------------------|
G|----------------------|
D|-------------------0--|
A|-3--2--0--------------|
E|----------3--2--0-----|
          D
You gotta roll

[Interlude]
D Dsus4 Cadd2 
D Dsus4 Cadd2 

[Riff]
d|----------------------|
B|----------------------|
G|----------------------|
D|-------------------0--|
A|-3--2--0--------------|
E|----------3--2--0-----|

D Dsus4 Cadd2 G D

[Verse 5]
D
Yeah you give what you get
         Cadd2
Yeah you get what you give 
             G
And it don't make no sense
            D            Dsus4
No it don't make no sense
D
And I feel like rolling
          Cadd2
Moving on down the line
         G          
I got to see what's out there
         D
I got to take what's mine

[Outro]
D

            
            
Suggest correction
Creating personal tab
Creating personal tab
You can edit any tab online and save it as your Personal.

You can edit, replace or remove any tab part or add personal notes – all changes will be seen only by you.

Personal tabs can be accessed anytime from any device, even offline.
Learn more »
Give kudos to tab author, rate the tab!
1 2 3 4 5
comments
print report bad tab
guest
You may want to rate the tab now too:
select rating
Wanna post a correction for this tab? Suggest correction