Oops, an error
Loading. Please wait.

This Plan bass

by Moke
859 views 3 this week
no commentswrite comment
1 2 3 4 5
2 more votes to show rating
add to favorites
×
Save as Personal and add changes to this tab that will be seen only by you. Learn more ›
×
You can save this tab as Personal to edit and correct it or add notes. All changes will be seen only by you. Learn more »
launch autoscroll
font size
0
reset
guitar tuner
edit
Autoscroll
slow
fast
+/-
esc
set tempo
stop
Author
Difficulty
Moke - This Plan


G|---------------------|---------------------|---------------------|---------------------|
D|---------------------|---------------------|---------------------|---------------------|
A|---------------------|---------------------|---------------------|-5----5----5----5----|
E|-0----0----0----0----|-2----2----2----2----|-3----3----3----3----|---------------------|


G|-4----4----4----4----|-4----4----4----4----|-4----4----4----4----|-4----4----4----4----|
D|---------------------|---------------------|---------------------|---------------------|
A|---------------------|---------------------|---------------------|---------------------|
E|---------------------|---------------------|---------------------|---------------------|


G|---------------------|---------------------|---------------------|---------------------|
D|---------------------|---------------------|---------------------|---------------------|
A|---------------------|---------------------|---------------------|-5----5----5----5----|
E|-0----0----0----0----|-2----2----2----2----|-3----3----3----3----|---------------------|


G|-4----4----4----4----|-4----4----4----4----|-4----4----4----4----|-4----4----4----4----|
D|---------------------|---------------------|---------------------|---------------------|
A|---------------------|---------------------|---------------------|---------------------|
E|---------------------|---------------------|---------------------|---------------------|


G|-----------------|-----------------|-----------------|-----------------|-----------------|
D|-----------------|-----------------|-----------------|-----------------|-----------------|
A|-----------------|-----------------|-----------------|-----------------|-2----2----------|
E|-0----0----------|-0----0----------|-0----0----------|-0----0----------|-----------------|


G|-----------------|-----------------|-----------------|-----------------|-----------------|
D|-----------------|-----------------|-----------------|-----------------|-----------------|
A|-2----2----------|-2----2----------|-2----2----------|-----------------|-----------------|
E|-----------------|-----------------|-----------------|-0----0----------|-0----0----------|


G|-----------------|-----------------|-----------------|-----------------|-----------------|
D|-----------------|-----------------|-----------------|-----------------|-----------------|
A|-----------------|-----------------|-2----2----------|-2----2----------|-2----2----------|
E|-0----0----------|-0----0----------|-----------------|-----------------|-----------------|


G|-----------------|---------------------|---------------------|---------------------|
D|-----------------|-5----5----5----5----|-5----5----5----5----|-2----2----2----2----|
A|-2----2----------|---------------------|---------------------|---------------------|
E|-----------------|---------------------|---------------------|---------------------|


G|---------------------|---------------------|---------------------|---------------------|
D|-2----2----2----2----|---------------------|---------------------|---------------------|
A|---------------------|-2----2----2----2----|-2----2----2----2----|-2----2----2----2----|
E|---------------------|---------------------|---------------------|---------------------|


G|---------------------|---------------------|-----------------|---------------------|
D|---------------------|-5----5----5----5----|-5----5----7-----|-2----2----2----2----|
A|-2----2----2----2----|---------------------|-----------------|---------------------|
E|---------------------|---------------------|-----------------|---------------------|


G|-----------------|---------------------|---------------------|---------------------|
D|-2----2----4-----|---------------------|---------------------|---------------------|
A|-----------------|-2----2----2----2----|-2----2----2----2----|-2----2----2----2----|
E|-----------------|---------------------|---------------------|---------------------|


G|---------------------|---------------------|---------------------|---------------------|
D|---------------------|---------------------|---------------------|---------------------|
A|-2----2----2----2----|---------------------|---------------------|---------------------|
E|---------------------|-0----0----0----0----|-2----2----2----2----|-3----3----3----3----|


G|---------------------|-4----4----4----4----|-4----4----4----4----|-4----4----4----4----|
D|---------------------|---------------------|---------------------|---------------------|
A|-5----5----5----5----|---------------------|---------------------|---------------------|
E|---------------------|---------------------|---------------------|---------------------|


G|-4----4----4----4----|-----------------|-----------------|-----------------|-----------------|
D|---------------------|-----------------|-----------------|-----------------|-----------------|
A|---------------------|-----------------|-----------------|-----------------|-----------------|
E|---------------------|-0----0----------|-0----0----------|-0----0----------|-0----0----------|


G|-----------------|-----------------|-----------------|-----------------|-----------------|
D|-----------------|-----------------|-----------------|-----------------|-----------------|
A|-2----2----------|-2----2----------|-2----2----------|-2----2----------|-----------------|
E|-----------------|-----------------|-----------------|-----------------|-0----0----------|


G|-----------------|-----------------|-----------------|-----------------|-----------------|
D|-----------------|-----------------|-----------------|-----------------|-----------------|
A|-----------------|-----------------|-----------------|-2----2----------|-2----2----------|
E|-0----0----------|-0----0----------|-0----0----------|-----------------|-----------------|


G|-----------------|-----------------|---------------------|---------------------|
D|-----------------|-----------------|-5----5----5----5----|-5----5----5----5----|
A|-2----2----------|-2----2----------|---------------------|---------------------|
E|-----------------|-----------------|---------------------|---------------------|


G|---------------------|---------------------|---------------------|---------------------|
D|-2----2----2----2----|-2----2----2----2----|---------------------|---------------------|
A|---------------------|---------------------|-2----2----2----2----|-2----2----2----2----|
E|---------------------|---------------------|---------------------|---------------------|


G|---------------------|---------------------|---------------------|-----------------|
D|---------------------|---------------------|-5----5----5----5----|-5----5----7-----|
A|-2----2----2----2----|-2----2----2----2----|---------------------|-----------------|
E|---------------------|---------------------|---------------------|-----------------|


G|---------------------|---------------------|---------------------|---------------------|
D|-2----2----2----2----|-2----2----2----2----|---------------------|---------------------|
A|---------------------|---------------------|-2----2----2----2----|-2----2----2----2----|
E|---------------------|---------------------|---------------------|---------------------|


G|---------------------|---------------------|---------------------|---------------------|
D|---------------------|---------------------|---------------------|---------------------|
A|-2----2----2----2----|-2----2----2----2----|-0----0----0----0----|-2----2----2----2----|
E|---------------------|---------------------|---------------------|---------------------|


G|---------------------|---------------------|---------------------|---------------------|
D|---------------------|-0----0----0----0----|---------------------|---------------------|
A|-3----3----3----3----|---------------------|---------------------|---------------------|
E|---------------------|---------------------|-0----0----0----0----|-2----2----2----2----|


G|---------------------|---------------------|---------------------|---------------------|
D|---------------------|---------------------|---------------------|---------------------|
A|---------------------|-2----2----2----2----|-0----0----0----0----|-2----2----2----2----|
E|-3----3----3----3----|---------------------|---------------------|---------------------|


G|---------------------|---------------------|-0----0----0----0----|-0----0----0----0----|
D|---------------------|-0----0----0----0----|---------------------|---------------------|
A|-3----3----3----3----|---------------------|---------------------|---------------------|
E|---------------------|---------------------|---------------------|---------------------|


G|-0----0----0----0----|-0----0----0----0----|--------|--------|--------|--------|
D|---------------------|---------------------|--------|--------|--------|--------|
A|---------------------|---------------------|--------|--------|--------|--------|
E|---------------------|---------------------|--------|--------|--------|--------|


G|---------------------|---------------------|---------------------|---------------------|
D|---------------------|---------------------|---------------------|---------------------|
A|-2----2----2----2----|-2----2----2----2----|-2----2----2----2----|-2----2----2----2----|
E|---------------------|---------------------|---------------------|---------------------|


G|---------------------|---------------------|---------------------|---------------------|
D|---------------------|---------------------|---------------------|---------------------|
A|---------------------|---------------------|---------------------|-5----5----5----5----|
E|-0----0----0----0----|-2----2----2----2----|-3----3----3----3----|---------------------|


G|-4----4----4----4----|-4----4----4----4----|-4----4----4----4----|-4----4----4----4----|
D|---------------------|---------------------|---------------------|---------------------|
A|---------------------|---------------------|---------------------|---------------------|
E|---------------------|---------------------|---------------------|---------------------|


G|-----------------|-----------------|-----------------|-----------------|-----------------|
D|-----------------|-----------------|-----------------|-----------------|-----------------|
A|-----------------|-----------------|-----------------|-----------------|-2----2----------|
E|-0----0----------|-0----0----------|-0----0----------|-0----0----------|-----------------|


G|-----------------|-----------------|-----------------|-----------------|-----------------|
D|-----------------|-----------------|-----------------|-----------------|-----------------|
A|-2----2----------|-2----2----------|-2----2----------|-----------------|-----------------|
E|-----------------|-----------------|-----------------|-0----0----------|-0----0----------|


G|-----------------|-----------------|-----------------|-----------------|-----------------|
D|-----------------|-----------------|-----------------|-----------------|-----------------|
A|-----------------|-----------------|-2----2----------|-2----2----------|-2----2----------|
E|-0----0----------|-0----0----------|-----------------|-----------------|-----------------|


G|-----------------|--------|--------|--------|--------|--------|--------|--------|
D|-----------------|--------|--------|--------|--------|--------|--------|--------|
A|-2----2----------|--------|--------|--------|--------|--------|--------|--------|
E|-----------------|--------|--------|--------|--------|--------|--------|--------|


G|--------|--------|--------|---------------------|---------------------|---------------------|
D|--------|--------|--------|-2----2----2----2----|-2----2----2----2----|---------------------|
A|--------|--------|--------|---------------------|---------------------|-2----2----2----2----|
E|--------|--------|--------|---------------------|---------------------|---------------------|


G|---------------------|---------------------|---------------------|---------------------|
D|---------------------|---------------------|---------------------|-5----5----5----5----|
A|-2----2----2----2----|-2----2----2----2----|-2----2----2----2----|---------------------|
E|---------------------|---------------------|---------------------|---------------------|


G|---------------------|---------------------|---------------------|---------------------|
D|-5----5----5----5----|-2----2----2----2----|-2----2----2----2----|---------------------|
A|---------------------|---------------------|---------------------|-2----2----2----2----|
E|---------------------|---------------------|---------------------|---------------------|


G|---------------------|---------------------|---------------------|---------------------|
D|---------------------|---------------------|---------------------|-5----5----5----5----|
A|-2----2----2----2----|-2----2----2----2----|-2----2----2----2----|---------------------|
E|---------------------|---------------------|---------------------|---------------------|


G|-----------------|---------------------|---------------------|---------------------|
D|-5----5----7-----|-2----2----2----2----|-2----2----2----2----|---------------------|
A|-----------------|---------------------|---------------------|-2----2----2----2----|
E|-----------------|---------------------|---------------------|---------------------|


G|---------------------|---------------------|---------------------|---------------------|
D|---------------------|---------------------|---------------------|---------------------|
A|-2----2----2----2----|-2----2----2----2----|-2----2----2----2----|-0----0----0----0----|
E|---------------------|---------------------|---------------------|---------------------|


G|---------------------|---------------------|---------------------|---------------------|
D|---------------------|---------------------|-0----0----0----0----|---------------------|
A|-2----2----2----2----|-3----3----3----3----|---------------------|---------------------|
E|---------------------|---------------------|---------------------|-0----0----0----0----|


G|---------------------|---------------------|---------------------|---------------------|
D|---------------------|---------------------|---------------------|---------------------|
A|---------------------|---------------------|-2----2----2----2----|-0----0----0----0----|
E|-2----2----2----2----|-3----3----3----3----|---------------------|---------------------|


G|---------------------|---------------------|---------------------|-0----0----0----0----|
D|---------------------|---------------------|-0----0----0----0----|---------------------|
A|-2----2----2----2----|-3----3----3----3----|---------------------|---------------------|
E|---------------------|---------------------|---------------------|---------------------|


G|-0----0----0----0----|-0----0----0----0----|-0----0----0----0----|---------------------|
D|---------------------|---------------------|---------------------|---------------------|
A|---------------------|---------------------|---------------------|-0----0----0----0----|
E|---------------------|---------------------|---------------------|---------------------|


G|---------------------|---------------------|---------------------|---------------------|
D|---------------------|---------------------|-0----0----0----0----|---------------------|
A|-2----2----2----2----|-3----3----3----3----|---------------------|---------------------|
E|---------------------|---------------------|---------------------|-0----0----0----0----|


G|---------------------|---------------------|---------------------|---------------------|
D|---------------------|---------------------|---------------------|---------------------|
A|---------------------|---------------------|-2----2----2----2----|-0----0----0----0----|
E|-2----2----2----2----|-3----3----3----3----|---------------------|---------------------|


G|---------------------|---------------------|---------------------|-0----0----0----0----|
D|---------------------|---------------------|-0----0----0----0----|---------------------|
A|-2----2----2----2----|-3----3----3----3----|---------------------|---------------------|
E|---------------------|---------------------|---------------------|---------------------|


G|-0----0----0----0----|-0----0----0----0----|-0----0----0----0----|---------------------|
D|---------------------|---------------------|---------------------|---------------------|
A|---------------------|---------------------|---------------------|---------------------|
E|---------------------|---------------------|---------------------|-0----0----0----0----|


G|---------------------|---------------------|---------------------|-4----4----4----4----|
D|---------------------|---------------------|---------------------|---------------------|
A|---------------------|---------------------|-5----5----5----5----|---------------------|
E|-2----2----2----2----|-3----3----3----3----|---------------------|---------------------|


G|-4----4----4----4----|-4----4----4----4----|-4----4----4----4----|-5----5----5----5----|
D|---------------------|---------------------|---------------------|---------------------|
A|---------------------|---------------------|---------------------|---------------------|
E|---------------------|---------------------|---------------------|---------------------|


G|-5----5----5----5----|-5----5----5----5----|-5----5----5----5----|-5----5----5----5----|
D|---------------------|---------------------|---------------------|---------------------|
A|---------------------|---------------------|---------------------|---------------------|
E|---------------------|---------------------|---------------------|---------------------|


G|-5----5----5----5----|-5----5----5----5----|-5----5----5----5----|--------|--------|
D|---------------------|---------------------|---------------------|--------|--------|
A|---------------------|---------------------|---------------------|--------|--------|
E|---------------------|---------------------|---------------------|-0------|-2------|


G|--------|--------|--------|--------|--------|--------|--------|--------|--------|
D|--------|--------|--------|--------|--------|--------|--------|--------|--------|
A|--------|--------|--------|--------|--------|--------|--------|--------|--------|
E|-3------|-0------|-2------|-3------|-0------|-2------|-3------|-0------|-2------|


G|--------|
D|--------|
A|--------|
E|-3------|




            
            
Suggest correction
Creating personal tab
Creating personal tab
You can edit any tab online and save it as your Personal.

You can edit, replace or remove any tab part or add personal notes – all changes will be seen only by you.

Personal tabs can be accessed anytime from any device, even offline.
Learn more »
Give kudos to tab author, rate the tab!
1 2 3 4 5
comments
print report bad tab
guest
You may want to rate the tab now too:
select rating
Wanna post a correction for this tab? Suggest correction