Oops, an error
Loading. Please wait.

El Bote Bass Tab

27 views 3 this week
no commentswrite comment
1 2 3 4 5
3 more votes to show rating
add to favorites
launch autoscroll
font size
0
reset
guitar tuner
×
Best way to learn
"El Bote"
Autoscroll
slow
fast
+/-
esc
set tempo
stop
1 parte
G|------------------------------|
D|------------------------------|
A|----5-5----55-----55----55----|
E|--------5------5------5-------|

G|------------------------------|
D|------------------------------|
A|----22----22----22----22------|
E|--3----3------3----3-----3----|

G|------------------------------|
D|------------------------------|
A|----5-5----55-----55----55----|
E|--------5------5------5-------|
G|------------------------------|
D|------------------------------|
A|----22----22----22----22------|
E|--3----3------3----3-----3----|


G|--------------------------------|
D|--------------------------------|
A|----5-5---5-5---5---------------|
E|--------5-----5---5-------------|

G|--------------------------------|
D|--------------------------------|
A|----5-5---5-5---5---------------|
E|--------5-----5---5-------------|


G|---------------------------|
D|---------------------------|
A|----2-2---2-2---2----------|
E|--------3-----3---3--------|

G|---------------------------|
D|---------------------------|
A|----2-2---2-2---2----------|
E|--------3-----3---3--------|

G|--------------------------------|
D|--------------------------------|
A|----5-5---5-5---5---------------|
E|--------5-----5---5-------------|

G|--------------------------------|
D|--------------------------------|
A|----5-5---5-5---5---------------|
E|--------5-----5---5-------------|


G|---------------------------|
D|---------------------------|
A|----2-2---2-2---2----------|
E|--------3-----3---3--------|

G|---------------------------|
D|---------------------------|
A|----2-2---2-2---2----------|
E|--------3-----3---3--------|

Toda la parte uno por 2
Coro

G|--------------------------------------------|
D|---------4-(*16)----------5-(*16)-----------|
A|--5-(*16)--------3-(*16)--------------------|
E|--------------------------------------------|

(Parte 1)
(Coro)
Solo
G|--------------------------------------------|
D|--------------------------------------------|
A|--5-(*16)---9-(*16)-----3-(*16)----2-(*16)--|
E|--------------------------------------------|
Otro
G|----------------------------------------|
D|--0-0-0-0-0-0--------0-0-0-0-0-0--------|*4
A|---------------12-10-------------11-12--|
E|----------------------------------------|
(Coro)
En él solo de guitarra se toca lo mismo ke en el koro
(Otro)
Suggest correction
Give kudos to tab author, rate the tab!
1 2 3 4 5
comments
print report bad tab
guest
You may want to rate the tab now too:
select rating
Wanna post a correction for this tab? Suggest correction