Oops, an error
Loading. Please wait.

Beatin The Odds tab

version 3
version 3

Whole song

Interactive

238 views 1 this week
no commentswrite comment
1 2 3 4 5
3 more votes to show rating
add to favorites
×
Save as Personal and add changes to this tab that will be seen only by you. Learn more ›
×
You can save this tab as Personal to edit and correct it or add notes. All changes will be seen only by you. Learn more »
launch autoscroll
font size
0
reset
how to read this tab
guitar tuner
edit
Autoscroll
slow
fast
+/-
esc
set tempo
stop
Author
Difficulty
-------------------------------------------------------------------------------------------------------
                                   Beatin' the Odds-Molly Hatchet
                                        Beatin' the Odds-1980
                      Words and music by Banner Thomas, Dave Hulbek, and Duane Roland
-------------------------------------------------------------------------------------------------------
Tabbed by: Duane Baldwin
E-mail: duaneandjulie@gmail.com

Tuning: Standard

Guitar I(over driven)

Intro (repeat twice)

    e  e  e  e  e  e    qte     e   q   e e  e e      e  e  e  e  e  e    qte    er   e   e     h
e|--------------------------|----------------------|--------------------------|-----------------------|
B|--------------------------|----------------------|--------------------------|-----------------------|
G|--------------------------|----------------------|--------------------------|-----------------7-----|
D|--2--2--2--4--2--2-----5--|---2---4--------------|--2--2--2--4--2--2-----5--|-------2---2-----7-----|
A|--0--0--0--0--0--0--------|---0---0---3h4--3h4---|--0--0--0--0--0--0--------|-------0---0-----5-----|
E|--------------------------|----------------------|--------------------------|-----------------------|

    e  e  e  e  e  e    qte     e   q   e e  e e      e  e  e  e  e  e    qte    er   e   e    q   q
e|--------------------------|----------------------|--------------------------|-----------------------|
B|--------------------------|----------------------|--------------------------|-----------------------|
G|--------------------------|----------------------|--------------------------|----------------7---5--|
D|--2--2--2--4--2--2-----5--|---2---4--------------|--2--2--2--4--2--2-----5--|------2---2-----7---5--|
A|--0--0--0--0--0--0--------|---0---0---3h4--3h4---|--0--0--0--0--0--0--------|------0---0-----5---3--|
E|--------------------------|----------------------|--------------------------|-----------------------|


1st Verse (Repeat twice)

    e  e  e  e  e  e    qte     e   q   e e  e e      e  e  e  e  e  e    qte    er   e   e     h
e|--------------------------|----------------------|--------------------------|-----------------------|
B|--------------------------|----------------------|--------------------------|-----------------------|
G|--------------------------|----------------------|--------------------------|-----------------7-----|
D|--2--2--2--4--2--2-----5--|---2---4--------------|--2--2--2--4--2--2-----5--|-------2---2-----7-----|
A|--0--0--0--0--0--0--------|---0---0---3h4--3h4---|--0--0--0--0--0--0--------|-------0---0-----5-----|
E|--------------------------|----------------------|--------------------------|-----------------------|

    e  e  e  e  e  e    qte     e   q   e e  e e      e  e  e  e  e  e    qte    er   e   e    q   q
e|--------------------------|----------------------|--------------------------|-----------------------|
B|--------------------------|----------------------|--------------------------|-----------------------|
G|--------------------------|----------------------|--------------------------|----------------7---5--|
D|--2--2--2--4--2--2-----5--|---2---4--------------|--2--2--2--4--2--2-----5--|------2---2-----7---5--|
A|--0--0--0--0--0--0--------|---0---0---3h4--3h4---|--0--0--0--0--0--0--------|------0---0-----5---3--|
E|--------------------------|----------------------|--------------------------|-----------------------|

1st Chorus

    e e   e    .q   e   e       e  e  e    .q   e   e       e e   e   .q    qth       q     q
e|---------------------------|---------------------------|-----------------------|----------------|
B|---------------------------|---------------------------|-----------------------|----------------|
G|-------------2-------------|-------------2-------------|-------------2-----7---|----7-----5-----|
D|-------------2-------------|-------------2-------------|-------------2-----7---|----7-----5-----|
A|--3p0--------0--------0----|--3p0--------0--------0----|--3p0--------0-----5---|----5-----3-----|
E|--------3---------3--------|--------3---------3--------|--------3--------------|----------------|

    e e   e    .q   e   e       e  e  e    .q   e   e       e e   e   .q    qt.h  qr
e|---------------------------|---------------------------|-----------------------|
B|---------------------------|---------------------------|-----------------------|
G|-------------2-------------|-------------2-------------|-------------2---------|
D|-------------2-------------|-------------2-------------|-------------2-----5---|
A|--3p0--------0--------0----|--3p0--------0--------0----|--3p0--------0-----5---|
E|--------3---------3--------|--------3---------3--------|--------3----------3---|

1st Solo

    e  e  e  e  e  e    qte     e   q   e e  e e      e  e  e  e  e  e    qte    er   e   e     h
e|--------------------------|----------------------|--------------------------|-----------------------|
B|--------------------------|----------------------|--------------------------|-----------------------|
G|--------------------------|----------------------|--------------------------|-----------------7-----|
D|--2--2--2--4--2--2-----5--|---2---4--------------|--2--2--2--4--2--2-----5--|-------2---2-----7-----|
A|--0--0--0--0--0--0--------|---0---0---3h4--3h4---|--0--0--0--0--0--0--------|-------0---0-----5-----|
E|--------------------------|----------------------|--------------------------|-----------------------|

    e  e  e  e  e  e    qte     e   q   e e  e e      e  e  e  e  e  e    qte    er   e   e    q   q
e|--------------------------|----------------------|--------------------------|-----------------------|
B|--------------------------|----------------------|--------------------------|-----------------------|
G|--------------------------|----------------------|--------------------------|----------------7---5--|
D|--2--2--2--4--2--2-----5--|---2---4--------------|--2--2--2--4--2--2-----5--|------2---2-----7---5--|
A|--0--0--0--0--0--0--------|---0---0---3h4--3h4---|--0--0--0--0--0--0--------|------0---0-----5---3--|
E|--------------------------|----------------------|--------------------------|-----------------------|

2 nd Verse (Repeat twice)

    e  e  e  e  e  e    qte     e   q   e e  e e      e  e  e  e  e  e    qte    er   e   e     h
e|--------------------------|----------------------|--------------------------|-----------------------|
B|--------------------------|----------------------|--------------------------|-----------------------|
G|--------------------------|----------------------|--------------------------|-----------------7-----|
D|--2--2--2--4--2--2-----5--|---2---4--------------|--2--2--2--4--2--2-----5--|-------2---2-----7-----|
A|--0--0--0--0--0--0--------|---0---0---3h4--3h4---|--0--0--0--0--0--0--------|-------0---0-----5-----|
E|--------------------------|----------------------|--------------------------|-----------------------|

    e  e  e  e  e  e    qte     e   q   e e  e e      e  e  e  e  e  e    qte    er   e   e    q   q
e|--------------------------|----------------------|--------------------------|-----------------------|
B|--------------------------|----------------------|--------------------------|-----------------------|
G|--------------------------|----------------------|--------------------------|----------------7---5--|
D|--2--2--2--4--2--2-----5--|---2---4--------------|--2--2--2--4--2--2-----5--|------2---2-----7---5--|
A|--0--0--0--0--0--0--------|---0---0---3h4--3h4---|--0--0--0--0--0--0--------|------0---0-----5---3--|
E|--------------------------|----------------------|--------------------------|-----------------------|

2nd chorus

    e e   e    .q   e   e       e  e  e    .q   e   e       e e   e   .q    qth       q     q
e|---------------------------|---------------------------|-----------------------|----------------|
B|---------------------------|---------------------------|-----------------------|----------------|
G|-------------2-------------|-------------2-------------|-------------2-----7---|----7-----5-----|
D|-------------2-------------|-------------2-------------|-------------2-----7---|----7-----5-----|
A|--3p0--------0--------0----|--3p0--------0--------0----|--3p0--------0-----5---|----5-----3-----|
E|--------3---------3--------|--------3---------3--------|--------3--------------|----------------|

    e e   e    .q   e   e       e  e  e    .q   e   e       e e   e   .q    qt.h  qr
e|---------------------------|---------------------------|-----------------------|
B|---------------------------|---------------------------|-----------------------|
G|-------------2-------------|-------------2-------------|-------------2---------|
D|-------------2-------------|-------------2-------------|-------------2-----5---|
A|--3p0--------0--------0----|--3p0--------0--------0----|--3p0--------0-----5---|
E|--------3---------3--------|--------3---------3--------|--------3----------3---|

Main Solo (Repeat twice)

    e  e  e  e  e  e    qte     e   q   e e  e e      e  e  e  e  e  e    qte    er   e   e     h
e|--------------------------|----------------------|--------------------------|-----------------------|
B|--------------------------|----------------------|--------------------------|-----------------------|
G|--------------------------|----------------------|--------------------------|-----------------7-----|
D|--2--2--2--4--2--2-----5--|---2---4--------------|--2--2--2--4--2--2-----5--|-------2---2-----7-----|
A|--0--0--0--0--0--0--------|---0---0---3h4--3h4---|--0--0--0--0--0--0--------|-------0---0-----5-----|
E|--------------------------|----------------------|--------------------------|-----------------------|

    e  e  e  e  e  e    qte     e   q   e e  e e      e  e  e  e  e  e    qte    er   e   e    q   q
e|--------------------------|----------------------|--------------------------|-----------------------|
B|--------------------------|----------------------|--------------------------|-----------------------|
G|--------------------------|----------------------|--------------------------|----------------7---5--|
D|--2--2--2--4--2--2-----5--|---2---4--------------|--2--2--2--4--2--2-----5--|------2---2-----7---5--|
A|--0--0--0--0--0--0--------|---0---0---3h4--3h4---|--0--0--0--0--0--0--------|------0---0-----5---3--|
E|--------------------------|----------------------|--------------------------|-----------------------|

Break down (Repeat twice)

    e  e  e  e  e  e    qte     e   q   e e  e e      e  e  e  e  e  e    qte    er   e   e     h
e|--------------------------|----------------------|--------------------------|-----------------------|
B|--------------------------|----------------------|--------------------------|-----------------------|
G|--------------------------|----------------------|--------------------------|-----------------7-----|
D|--2--2--2--4--2--2-----5--|---2---4--------------|--2--2--2--4--2--2-----5--|-------2---2-----7-----|
A|--0--0--0--0--0--0--------|---0---0---3h4--3h4---|--0--0--0--0--0--0--------|-------0---0-----5-----|
E|--------------------------|----------------------|--------------------------|-----------------------|

    e  e  e  e  e  e    qte     e   q   e e  e e      e  e  e  e  e  e    qte    er   e   e    q   q
e|--------------------------|----------------------|--------------------------|-----------------------|
B|--------------------------|----------------------|--------------------------|-----------------------|
G|--------------------------|----------------------|--------------------------|----------------7---5--|
D|--2--2--2--4--2--2-----5--|---2---4--------------|--2--2--2--4--2--2-----5--|------2---2-----7---5--|
A|--0--0--0--0--0--0--------|---0---0---3h4--3h4---|--0--0--0--0--0--0--------|------0---0-----5---3--|
E|--------------------------|----------------------|--------------------------|-----------------------|

3rd Verse (Repeat twice)

    e  e  e  e  e  e    qte     e   q   e e  e e      e  e  e  e  e  e    qte   Pick scrape   e  .qr
e|--------------------------|----------------------|--------------------------|-----------------------|
B|--------------------------|----------------------|--------------------------|-----------------------|
G|--------------------------|----------------------|--------------------------|---------------7-------|
D|--2--2--2--4--2--2-----5--|---2---4--------------|--2--2--2--4--2--2-----5--|---------------7-------|
A|--0--0--0--0--0--0--------|---0---0---3h4--3h4---|--0--0--0--0--0--0--------|---------------5-------|
E|--------------------------|----------------------|--------------------------|-----------------------|

    e  e  e  e  e  e    qte     e   q   e e  e e      e  e  e  e  e  e    qte    er   e   e    q   q
e|--------------------------|----------------------|--------------------------|-----------------------|
B|--------------------------|----------------------|--------------------------|-----------------------|
G|--------------------------|----------------------|--------------------------|----------------7---5--|
D|--2--2--2--4--2--2-----5--|---2---4--------------|--2--2--2--4--2--2-----5--|------2---2-----7---5--|
A|--0--0--0--0--0--0--------|---0---0---3h4--3h4---|--0--0--0--0--0--0--------|------0---0-----5---3--|
E|--------------------------|----------------------|--------------------------|-----------------------|

3rd chorus

    e e   e    .q   e   e       e  e  e    .q   e   e       e e   e   .q    qth       q     q
e|---------------------------|---------------------------|-----------------------|----------------|
B|---------------------------|---------------------------|-----------------------|----------------|
G|-------------2-------------|-------------2-------------|-------------2-----7---|----7-----5-----|
D|-------------2-------------|-------------2-------------|-------------2-----7---|----7-----5-----|
A|--3p0--------0--------0----|--3p0--------0--------0----|--3p0--------0-----5---|----5-----3-----|
E|--------3---------3--------|--------3---------3--------|--------3--------------|----------------|

    e e   e    .q   e   e       e  e  e    .q   e   e       e e   e   .q    qtw
e|---------------------------|---------------------------|-----------------------|
B|---------------------------|---------------------------|-----------------------|
G|-------------2-------------|-------------2-------------|-------------2---------|
D|-------------2-------------|-------------2-------------|-------------2-----5---|
A|--3p0--------0--------0----|--3p0--------0--------0----|--3p0--------0-----5---|
E|--------3---------3--------|--------3---------3--------|--------3----------3---|

    e e   e    .q   e   e       e  e  e    .q   e   e       e e   e   .q    qth       q     q
e|---------------------------|---------------------------|-----------------------|----------------|
B|---------------------------|---------------------------|-----------------------|----------------|
G|-------------2-------------|-------------2-------------|-------------2-----7---|----7-----5-----|
D|-------------2-------------|-------------2-------------|-------------2-----7---|----7-----5-----|
A|--3p0--------0--------0----|--3p0--------0--------0----|--3p0--------0-----5---|----5-----3-----|
E|--------3---------3--------|--------3---------3--------|--------3--------------|----------------|

    e e   e    .q   e   e       e  e  e    .q   e   e       e e   e   .q    qt.h
e|---------------------------|---------------------------|-----------------------|
B|---------------------------|---------------------------|-----------------------|
G|-------------2-------------|-------------2-------------|-------------2---------|
D|-------------2-------------|-------------2-------------|-------------2-----5---|
A|--3p0--------0--------0----|--3p0--------0--------0----|--3p0--------0-----5---|
E|--------3---------3--------|--------3---------3--------|--------3----------3---|

outro

  e  e  e  e  e  e    qte     e   q   e e  e e      e  e  e  e  e  e    qte    er   e   e     h
e|--------------------------|----------------------|--------------------------|-----------------------|
B|--------------------------|----------------------|--------------------------|-----------------------|
G|--------------------------|----------------------|--------------------------|-----------------7-----|
D|--2--2--2--4--2--2-----5--|---2---4--------------|--2--2--2--4--2--2-----5--|-------2---2-----7-----|
A|--0--0--0--0--0--0--------|---0---0---3h4--3h4---|--0--0--0--0--0--0--------|-------0---0-----5-----|
E|--------------------------|----------------------|--------------------------|-----------------------|

    e  e  e  e  e  e    qte     e   q   e e  e e      e  e  e  e  e  e    qte    er   e   e    q   q
e|--------------------------|----------------------|--------------------------|-----------------------|
B|--------------------------|----------------------|--------------------------|-----------------------|
G|--------------------------|----------------------|--------------------------|----------------7---5--|
D|--2--2--2--4--2--2-----5--|---2---4--------------|--2--2--2--4--2--2-----5--|------2---2-----7---5--|
A|--0--0--0--0--0--0--------|---0---0---3h4--3h4---|--0--0--0--0--0--0--------|------0---0-----5---3--|
E|--------------------------|----------------------|--------------------------|-----------------------|

        q
e|---------------|
B|---------------|
G|------2--------|
D|------2--------|
A|------0--------|
E|---------------|

Guitar II (over driven)

Intro

 Rest for first eight measures


 Hold for four measures
e|-------------------|
B|-------5-----------|
G|-------7b----------|
D|-------------------|
A|-------------------|
E|-------------------|


Hold for four measures  e  e  e  e  e  e  q
e|-------------------|-----------------------|
B|-------------------|-----------------------|
G|-------------------|-----------------------|
D|--------2----------|--7--5-----5-----------|
A|--------0----------|--------7-----7--5-----|
E|-------------------|--------------------8--|


1st Verse (Repeat twice)

    e  e  e  e  e  e    qte     e   q   e e  e e      e  e  e  e  e  e    qte    er   e   e     h
e|--------------------------|----------------------|--------------------------|-----------------------|
B|--------------------------|----------------------|--------------------------|-----------------------|
G|--------------------------|----------------------|--------------------------|-----------------7-----|
D|--2--2--2--4--2--2-----5--|---2---4--------------|--2--2--2--4--2--2-----5--|-------2---2-----7-----|
A|--0--0--0--0--0--0--------|---0---0---3h4--3h4---|--0--0--0--0--0--0--------|-------0---0-----5-----|
E|--------------------------|----------------------|--------------------------|-----------------------|

    e  e  e  e  e  e    qte     e   q   e e  e e      e  e  e  e  e  e    qte    er   e   e    q   q
e|--------------------------|----------------------|--------------------------|-----------------------|
B|--------------------------|----------------------|--------------------------|-----------------------|
G|--------------------------|----------------------|--------------------------|----------------7---5--|
D|--2--2--2--4--2--2-----5--|---2---4--------------|--2--2--2--4--2--2-----5--|------2---2-----7---5--|
A|--0--0--0--0--0--0--------|---0---0---3h4--3h4---|--0--0--0--0--0--0--------|------0---0-----5---3--|
E|--------------------------|----------------------|--------------------------|-----------------------|

1st Chorus

    e e   e    .q   e   e       e  e  e    .q   e   e       e e   e   .q    qth       q     q
e|---------------------------|---------------------------|-----------------------|----------------|
B|---------------------------|---------------------------|-----------------------|----------------|
G|-------------2-------------|-------------2-------------|-------------2-----7---|----7-----5-----|
D|-------------2-------------|-------------2-------------|-------------2-----7---|----7-----5-----|
A|--3p0--------0--------0----|--3p0--------0--------0----|--3p0--------0-----5---|----5-----3-----|
E|--------3---------3--------|--------3---------3--------|--------3--------------|----------------|

    e e   e    .q   e   e       e  e  e    .q   e   e       e e   e   .q    qt.h  qr
e|---------------------------|---------------------------|-----------------------|
B|---------------------------|---------------------------|-----------------------|
G|-------------2-------------|-------------2-------------|-------------2---------|
D|-------------2-------------|-------------2-------------|-------------2-----5---|
A|--3p0--------0--------0----|--3p0--------0--------0----|--3p0--------0-----5---|
E|--------3---------3--------|--------3---------3--------|--------3----------3---|


1st Solo


    s s  e  e  s s  e  e  s s  e     e  s s  e  e  e  e  e  e     e  q   e  s s  e  s s  e
e|--------------------------------|----------------------------|---------5------------------|
B|--7/9--9--9--7/9--9--9--7/9--9--|--9--7/9--9--9--5-----------|------------8p5-------------|
G|--6/8--8--8--7/8--8--8--6/8--8--|--8--6/8--8--8-----7--5-----|--5--7b----------7--7p5-----|
D|--------------------------------|-------------------------7--|-------------------------7--|
A|--------------------------------|----------------------------|----------------------------|
E|--------------------------------|----------------------------|----------------------------|


     q     e  e  e  e     e  e  e  e  q  e  e    s s   e  e  e  e  e  e  e
e|---------------------|-----------------------|----------------------------|
B|---------------------|-----------------------|----------------------------|
G|--7bp+---5-----------|-----------------------|----------------------------|
D|------------7--5-----|-----------------------|-------------------5--7--5--|
A|------------------7--|--6--5--5--3--------3--|--5p3-----3--5--7-----------|
E|---------------------|--------------5--5-----|-------5--------------------|


    q   q   s s  e  s s   e     e   e  s s  e  s s  e  q        w ( decay into 2nd verse)
e|--------------------------|-------5---------------------|-----------|
B|--------------------------|----------8p5----------------|-----------|
G|--5---5--------5--7p5-----|--7b-----------7--7p5-----5--|-----------|
D|----------5h7----------7--|-----------------------7-----|-----7-----|
A|--------------------------|-----------------------------|-----------|
E|--------------------------|-----------------------------|-----------|


2 nd Verse (Repeat twice)

    e  e  e  e  e  e    qte     e   q   e e  e e      e  e  e  e  e  e    qte    er   e   e     h
e|--------------------------|----------------------|--------------------------|-----------------------|
B|--------------------------|----------------------|--------------------------|-----------------------|
G|--------------------------|----------------------|--------------------------|-----------------7-----|
D|--2--2--2--4--2--2-----5--|---2---4--------------|--2--2--2--4--2--2-----5--|-------2---2-----7-----|
A|--0--0--0--0--0--0--------|---0---0---3h4--3h4---|--0--0--0--0--0--0--------|-------0---0-----5-----|
E|--------------------------|----------------------|--------------------------|-----------------------|

    e  e  e  e  e  e    qte     e   q   e e  e e      e  e  e  e  e  e    qte    er   e   e    q   q
e|--------------------------|----------------------|--------------------------|-----------------------|
B|--------------------------|----------------------|--------------------------|-----------------------|
G|--------------------------|----------------------|--------------------------|----------------7---5--|
D|--2--2--2--4--2--2-----5--|---2---4--------------|--2--2--2--4--2--2-----5--|------2---2-----7---5--|
A|--0--0--0--0--0--0--------|---0---0---3h4--3h4---|--0--0--0--0--0--0--------|------0---0-----5---3--|
E|--------------------------|----------------------|--------------------------|-----------------------|

2nd chorus

    e e   e    .q   e   e       e  e  e    .q   e   e       e e   e   .q    qth       q     q
e|---------------------------|---------------------------|-----------------------|----------------|
B|---------------------------|---------------------------|-----------------------|----------------|
G|-------------2-------------|-------------2-------------|-------------2-----7---|----7-----5-----|
D|-------------2-------------|-------------2-------------|-------------2-----7---|----7-----5-----|
A|--3p0--------0--------0----|--3p0--------0--------0----|--3p0--------0-----5---|----5-----3-----|
E|--------3---------3--------|--------3---------3--------|--------3--------------|----------------|

    e e   e    .q   e   e       e  e  e    .q   e   e       e e   e   .q    qt.h  qr
e|---------------------------|---------------------------|-----------------------|
B|---------------------------|---------------------------|-----------------------|
G|-------------2-------------|-------------2-------------|-------------2---------|
D|-------------2-------------|-------------2-------------|-------------2-----5---|
A|--3p0--------0--------0----|--3p0--------0--------0----|--3p0--------0-----5---|
E|--------3---------3--------|--------3---------3--------|--------3----------3---|


Main Solo


     q  e  q   e  e   e     e   e e  e  e  e  e       e  e  s s  e   s s  e  e  e
e|------5------5--5------|--5-----5--5-----5--5---|------5-------------------------|
B|-------------5--5------|--5-----5--5-----5--5---|---------8p5--------------------|
G|--7b-----7b--------7b--|-----7b-------7b--------|--7b-----------7--7p5-----5-----|
D|-----------------------|------------------------|-----------------------7-----7--|
A|-----------------------|------------------------|--------------------------------|
E|-----------------------|------------------------|--------------------------------|

    e  e  e  e  q  e  e     e  e  s s  e  s s  e  s s  e    s s   e  e  q  e  q
e|-----------------------|--------------------------------|----------------------|
B|-----------------------|--------------------------------|----------------------|
G|-----------------------|--------------------------------|-------------5-----5--|
D|--5--------------------|--------------------------------|-------5--7-----7-----|
A|-----7--5--3-----------|--3--3--5p3-----5p3-----5p3-----|--5/7-----------------|
E|--------------5--3--5--|-------------5-------5-------5--|----------------------|


    s s  e  s s  e  s s  e  q     q   q    s s  e  e  e     s  s e  e  e  e  e  e  e
e|--8p5------------------------|-------------------------|----------------------------|
B|-------8--8p5----------------|-------------------------|-------8--------------------|
G|---------------7--7p5-----5--|--7b---7b--7p5-----5-----|--7/9-----9--7--5-----5--7--|
D|-----------------------7-----|----------------7-----7--|-------------------7--------|
A|-----------------------------|-------------------------|----------------------------|
E|-----------------------------|-------------------------|----------------------------|

    s s  e  e  e   q  q     s s  e  e  e  e  e  e  e    e  e   s s  e  e  e  e  e
e|-----------------------|----------------------------|----------------------------|
B|-------8-----8--10--8--|-------8--------------------|----------------------------|
G|--7/9-----9------------|--7/9-----9--7--5-----5-----|----------------------------|
D|-----------------------|-------------------7-----7--|--5-------------------------|
A|-----------------------|----------------------------|-----7--5p3-----3--------3--|
E|-----------------------|----------------------------|-------------5-----3--5-----|

    s s  e  s s  e  s  s  e s s  e     e  e  s s  e  e   e  s  s  e
e|----------------------------------|--------------------5-----------|
B|----------------------------------|-----------------------10p8-----|
G|----------------------------------|-----5--7p5-----7b-----------7--|
D|-----------------------5--7p5-----|--7----------7------------------|
A|--5p3-----5p3-----5/7----------7--|--------------------------------|
E|-------5-------5------------------|--------------------------------|

    s s  e  e   s   s  e  e   s   s   e    e   e     e       e      e    e   e  e
e|--------------------------------------|-------------------------------------------|
B|--------------------------------------|-------------------------------------------|
G|--7p5-----5--7br--5-----5--7br--5-----|--7b--7pb--7pbp+--7pbp+--7pbrp+--5-----5---|
D|-------7-------------7-------------7--|------------------------------------7------|
A|--------------------------------------|-------------------------------------------|
E|--------------------------------------|-------------------------------------------|


Breakdown


  hold for 31/2 measures        h          hold 3 measures
e|-------------------|-------------------|------------|
B|-------------------|-------------------|------------|
G|-----7b------------|---------7pbr------|------------|
D|-------------------|-------------------|------------|
A|-------------------|-------------------|------0-----|
E|-------------------|-------------------|------------|

    e  e  e  e  e  e q     hold 7 measures   q   q
e|-----------------------|--------------|--------------|
B|-----------------------|--------------|--------------|
G|--5--------------------|--------------|----7---5-----|
D|----7--5-----5---------|--------------|----7---5-----|
A|----------7-----7--3---|--------------|----5---3-----|
E|-----------------------|-----5--------|--------------|

3rd Verse (Repeat twice)

    e  e  e  e  e  e    qte     e   q   e e  e e      e  e  e  e  e  e    qte   Pick scrape   e  .qr
e|--------------------------|----------------------|--------------------------|-----------------------|
B|--------------------------|----------------------|--------------------------|-----------------------|
G|--------------------------|----------------------|--------------------------|---------------7-------|
D|--2--2--2--4--2--2-----5--|---2---4--------------|--2--2--2--4--2--2-----5--|---------------7-------|
A|--0--0--0--0--0--0--------|---0---0---3h4--3h4---|--0--0--0--0--0--0--------|---------------5-------|
E|--------------------------|----------------------|--------------------------|-----------------------|

    e  e  e  e  e  e    qte     e   q   e e  e e      e  e  e  e  e  e    qte    er   e   e    q   q
e|--------------------------|----------------------|--------------------------|-----------------------|
B|--------------------------|----------------------|--------------------------|-----------------------|
G|--------------------------|----------------------|--------------------------|----------------7---5--|
D|--2--2--2--4--2--2-----5--|---2---4--------------|--2--2--2--4--2--2-----5--|------2---2-----7---5--|
A|--0--0--0--0--0--0--------|---0---0---3h4--3h4---|--0--0--0--0--0--0--------|------0---0-----5---3--|
E|--------------------------|----------------------|--------------------------|-----------------------|

3rd chorus

    e e   e    .q   e   e       e  e  e    .q   e   e       e e   e   .q    qth       q     q
e|---------------------------|---------------------------|-----------------------|----------------|
B|---------------------------|---------------------------|-----------------------|----------------|
G|-------------2-------------|-------------2-------------|-------------2-----7---|----7-----5-----|
D|-------------2-------------|-------------2-------------|-------------2-----7---|----7-----5-----|
A|--3p0--------0--------0----|--3p0--------0--------0----|--3p0--------0-----5---|----5-----3-----|
E|--------3---------3--------|--------3---------3--------|--------3--------------|----------------|

    e e   e    .q   e   e       e  e  e    .q   e   e       e  e  e  e  e  e   qt.h
e|---------------------------|---------------------------|-----------------------|
B|---------------------------|---------------------------|-----------------------|
G|-------------2-------------|-------------2-------------|--5--------------------|
D|-------------2-------------|-------------2-------------|-----7--5--------------|
A|--3p0--------0--------0----|--3p0--------0--------0----|-----------7--5--3-----|
E|--------3---------3--------|--------3---------3--------|--------------------5--|


outro

rest for 4 measures


     31/2             q   q           q
e|---------------|--------------|--------------|
B|------5--------|--------------|--------------|
G|------7b-------|---7----5-----|-----2--------|
D|---------------|---7----5-----|-----2--------|
A|---------------|---5----3-----|-----0--------|
E|---------------|--------------|--------------|


Guitar III (over driven)

Intro

rest 3 measures

   hr    h
e|--------------|
B|--------------|
G|-------7------|
D|-------7------|
A|-------5------|
E|--------------|

rest 3 measures

   hr  q   q

e|--------------|
B|--------------|
G|----7----5----|
D|----7----5----|
A|----5----3----|
E|--------------|

    e  e  e  e  e  e    qte     e   q   e e  e e      e  e  e  e  e  e    qte    er   e   e     h
e|--------------------------|----------------------|--------------------------|-----------------------|
B|--------------------------|----------------------|--------------------------|-----------------------|
G|--------------------------|----------------------|--------------------------|-----------------7-----|
D|--2--2--2--4--2--2-----5--|---2---4--------------|--2--2--2--4--2--2-----5--|-------2---2-----7-----|
A|--0--0--0--0--0--0--------|---0---0---3h4--3h4---|--0--0--0--0--0--0--------|-------0---0-----5-----|
E|--------------------------|----------------------|--------------------------|-----------------------|

    e  e  e  e  e  e    qte     e   q   e e  e e      e  e  e  e  e  e    qte    er   e   e    q   q
e|--------------------------|----------------------|--------------------------|-----------------------|
B|--------------------------|----------------------|--------------------------|-----------------------|
G|--------------------------|----------------------|--------------------------|----------------7---5--|
D|--2--2--2--4--2--2-----5--|---2---4--------------|--2--2--2--4--2--2-----5--|------2---2-----7---5--|
A|--0--0--0--0--0--0--------|---0---0---3h4--3h4---|--0--0--0--0--0--0--------|------0---0-----5---3--|
E|--------------------------|----------------------|--------------------------|-----------------------|

1st Verse (Repeat twice)

    e  e  e  e  e  e    qte     e   q   e e  e e      e  e  e  e  e  e    qte    er   e   e     h
e|--------------------------|----------------------|--------------------------|-----------------------|
B|--------------------------|----------------------|--------------------------|-----------------------|
G|--------------------------|----------------------|--------------------------|-----------------7-----|
D|--2--2--2--4--2--2-----5--|---2---4--------------|--2--2--2--4--2--2-----5--|-------2---2-----7-----|
A|--0--0--0--0--0--0--------|---0---0---3h4--3h4---|--0--0--0--0--0--0--------|-------0---0-----5-----|
E|--------------------------|----------------------|--------------------------|-----------------------|

    e  e  e  e  e  e    qte     e   q   e e  e e      e  e  e  e  e  e    qte    er   e   e    q   q
e|--------------------------|----------------------|--------------------------|-----------------------|
B|--------------------------|----------------------|--------------------------|-----------------------|
G|--------------------------|----------------------|--------------------------|----------------7---5--|
D|--2--2--2--4--2--2-----5--|---2---4--------------|--2--2--2--4--2--2-----5--|------2---2-----7---5--|
A|--0--0--0--0--0--0--------|---0---0---3h4--3h4---|--0--0--0--0--0--0--------|------0---0-----5---3--|
E|--------------------------|----------------------|--------------------------|-----------------------|

1st Chorus

    e e   e    .q   e   e       e  e  e    .q   e   e       e e   e   .q    qth       q     q
e|---------------------------|---------------------------|-----------------------|----------------|
B|---------------------------|---------------------------|-----------------------|----------------|
G|-------------2-------------|-------------2-------------|-------------2-----7---|----7-----5-----|
D|-------------2-------------|-------------2-------------|-------------2-----7---|----7-----5-----|
A|--3p0--------0--------0----|--3p0--------0--------0----|--3p0--------0-----5---|----5-----3-----|
E|--------3---------3--------|--------3---------3--------|--------3--------------|----------------|

    e e   e    .q   e   e       e  e  e    .q   e   e       e e   e   .q    qt.h  qr
e|---------------------------|---------------------------|-----------------------|
B|---------------------------|---------------------------|-----------------------|
G|-------------2-------------|-------------2-------------|-------------2---------|
D|-------------2-------------|-------------2-------------|-------------2-----5---|
A|--3p0--------0--------0----|--3p0--------0--------0----|--3p0--------0-----5---|
E|--------3---------3--------|--------3---------3--------|--------3----------3---|

1st Solo

    e  e  e  e  e  e    qte     e   q   e e  e e      e  e  e  e  e  e    qte    er   e   e     h
e|--------------------------|----------------------|--------------------------|-----------------------|
B|--------------------------|----------------------|--------------------------|-----------------------|
G|--------------------------|----------------------|--------------------------|-----------------7-----|
D|--2--2--2--4--2--2-----5--|---2---4--------------|--2--2--2--4--2--2-----5--|-------2---2-----7-----|
A|--0--0--0--0--0--0--------|---0---0---3h4--3h4---|--0--0--0--0--0--0--------|-------0---0-----5-----|
E|--------------------------|----------------------|--------------------------|-----------------------|

    e  e  e  e  e  e    qte     e   q   e e  e e      e  e  e  e  e  e    qte    er   e   e    q   q
e|--------------------------|----------------------|--------------------------|-----------------------|
B|--------------------------|----------------------|--------------------------|-----------------------|
G|--------------------------|----------------------|--------------------------|----------------7---5--|
D|--2--2--2--4--2--2-----5--|---2---4--------------|--2--2--2--4--2--2-----5--|------2---2-----7---5--|
A|--0--0--0--0--0--0--------|---0---0---3h4--3h4---|--0--0--0--0--0--0--------|------0---0-----5---3--|
E|--------------------------|----------------------|--------------------------|-----------------------|

2 nd Verse (Repeat twice)

    e  e  e  e  e  e    qte     e   q   e e  e e      e  e  e  e  e  e    qte    er   e   e     h
e|--------------------------|----------------------|--------------------------|-----------------------|
B|--------------------------|----------------------|--------------------------|-----------------------|
G|--------------------------|----------------------|--------------------------|-----------------7-----|
D|--2--2--2--4--2--2-----5--|---2---4--------------|--2--2--2--4--2--2-----5--|-------2---2-----7-----|
A|--0--0--0--0--0--0--------|---0---0---3h4--3h4---|--0--0--0--0--0--0--------|-------0---0-----5-----|
E|--------------------------|----------------------|--------------------------|-----------------------|

    e  e  e  e  e  e    qte     e   q   e e  e e      e  e  e  e  e  e    qte    er   e   e    q   q
e|--------------------------|----------------------|--------------------------|-----------------------|
B|--------------------------|----------------------|--------------------------|-----------------------|
G|--------------------------|----------------------|--------------------------|----------------7---5--|
D|--2--2--2--4--2--2-----5--|---2---4--------------|--2--2--2--4--2--2-----5--|------2---2-----7---5--|
A|--0--0--0--0--0--0--------|---0---0---3h4--3h4---|--0--0--0--0--0--0--------|------0---0-----5---3--|
E|--------------------------|----------------------|--------------------------|-----------------------|

2nd chorus

    e e   e    .q   e   e       e  e  e    .q   e   e       e e   e   .q    qth       q     q
e|---------------------------|---------------------------|-----------------------|----------------|
B|---------------------------|---------------------------|-----------------------|----------------|
G|-------------2-------------|-------------2-------------|-------------2-----7---|----7-----5-----|
D|-------------2-------------|-------------2-------------|-------------2-----7---|----7-----5-----|
A|--3p0--------0--------0----|--3p0--------0--------0----|--3p0--------0-----5---|----5-----3-----|
E|--------3---------3--------|--------3---------3--------|--------3--------------|----------------|

    e e   e    .q   e   e       e  e  e    .q   e   e       e e   e   .q    qt.h  qr
e|---------------------------|---------------------------|-----------------------|
B|---------------------------|---------------------------|-----------------------|
G|-------------2-------------|-------------2-------------|-------------2---------|
D|-------------2-------------|-------------2-------------|-------------2-----5---|
A|--3p0--------0--------0----|--3p0--------0--------0----|--3p0--------0-----5---|
E|--------3---------3--------|--------3---------3--------|--------3----------3---|

Main Solo (Repeat twice)

    e  e  e  e  e  e    qte     e   q   e e  e e      e  e  e  e  e  e    qte    er   e   e     h
e|--------------------------|----------------------|--------------------------|-----------------------|
B|--------------------------|----------------------|--------------------------|-----------------------|
G|--------------------------|----------------------|--------------------------|-----------------7-----|
D|--2--2--2--4--2--2-----5--|---2---4--------------|--2--2--2--4--2--2-----5--|-------2---2-----7-----|
A|--0--0--0--0--0--0--------|---0---0---3h4--3h4---|--0--0--0--0--0--0--------|-------0---0-----5-----|
E|--------------------------|----------------------|--------------------------|-----------------------|

    e  e  e  e  e  e    qte     e   q   e e  e e      e  e  e  e  e  e    qte    er   e   e    q   q
e|--------------------------|----------------------|--------------------------|-----------------------|
B|--------------------------|----------------------|--------------------------|-----------------------|
G|--------------------------|----------------------|--------------------------|----------------7---5--|
D|--2--2--2--4--2--2-----5--|---2---4--------------|--2--2--2--4--2--2-----5--|------2---2-----7---5--|
A|--0--0--0--0--0--0--------|---0---0---3h4--3h4---|--0--0--0--0--0--0--------|------0---0-----5---3--|
E|--------------------------|----------------------|--------------------------|-----------------------|

Break down

rest 3 measures

   hr    h
e|--------------|
B|--------------|
G|-------7------|
D|-------7------|
A|-------5------|
E|--------------|

rest 3 measures

   hr  q   q

e|--------------|
B|--------------|
G|----7----5----|
D|----7----5----|
A|----5----3----|
E|--------------|

    e  e  e  e  e  e    qte     e   q   e e  e e      e  e  e  e  e  e    qte    er   e   e     h
e|--------------------------|----------------------|--------------------------|-----------------------|
B|--------------------------|----------------------|--------------------------|-----------------------|
G|--------------------------|----------------------|--------------------------|-----------------7-----|
D|--2--2--2--4--2--2-----5--|---2---4--------------|--2--2--2--4--2--2-----5--|-------2---2-----7-----|
A|--0--0--0--0--0--0--------|---0---0---3h4--3h4---|--0--0--0--0--0--0--------|-------0---0-----5-----|
E|--------------------------|----------------------|--------------------------|-----------------------|

    e  e  e  e  e  e    qte     e   q   e e  e e      e  e  e  e  e  e    qte    er   e   e    q   q
e|--------------------------|----------------------|--------------------------|-----------------------|
B|--------------------------|----------------------|--------------------------|-----------------------|
G|--------------------------|----------------------|--------------------------|----------------7---5--|
D|--2--2--2--4--2--2-----5--|---2---4--------------|--2--2--2--4--2--2-----5--|------2---2-----7---5--|
A|--0--0--0--0--0--0--------|---0---0---3h4--3h4---|--0--0--0--0--0--0--------|------0---0-----5---3--|
E|--------------------------|----------------------|--------------------------|-----------------------|

3rd Verse (Repeat twice)

    e  e  e  e  e  e    qte     e   q   e e  e e      e  e  e  e  e  e    qte   Pick scrape   e  .qr
e|--------------------------|----------------------|--------------------------|-----------------------|
B|--------------------------|----------------------|--------------------------|-----------------------|
G|--------------------------|----------------------|--------------------------|---------------7-------|
D|--2--2--2--4--2--2-----5--|---2---4--------------|--2--2--2--4--2--2-----5--|---------------7-------|
A|--0--0--0--0--0--0--------|---0---0---3h4--3h4---|--0--0--0--0--0--0--------|---------------5-------|
E|--------------------------|----------------------|--------------------------|-----------------------|

    e  e  e  e  e  e    qte     e   q   e e  e e      e  e  e  e  e  e    qte    er   e   e    q   q
e|--------------------------|----------------------|--------------------------|-----------------------|
B|--------------------------|----------------------|--------------------------|-----------------------|
G|--------------------------|----------------------|--------------------------|----------------7---5--|
D|--2--2--2--4--2--2-----5--|---2---4--------------|--2--2--2--4--2--2-----5--|------2---2-----7---5--|
A|--0--0--0--0--0--0--------|---0---0---3h4--3h4---|--0--0--0--0--0--0--------|------0---0-----5---3--|
E|--------------------------|----------------------|--------------------------|-----------------------|

3rd chorus

    e e   e    .q   e   e       e  e  e    .q   e   e       e e   e   .q    qth       q     q
e|---------------------------|---------------------------|-----------------------|----------------|
B|---------------------------|---------------------------|-----------------------|----------------|
G|-------------2-------------|-------------2-------------|-------------2-----7---|----7-----5-----|
D|-------------2-------------|-------------2-------------|-------------2-----7---|----7-----5-----|
A|--3p0--------0--------0----|--3p0--------0--------0----|--3p0--------0-----5---|----5-----3-----|
E|--------3---------3--------|--------3---------3--------|--------3--------------|----------------|

    e e   e    .q   e   e       e  e  e    .q   e   e       e e   e   .q    qtw
e|---------------------------|---------------------------|-----------------------|
B|---------------------------|---------------------------|-----------------------|
G|-------------2-------------|-------------2-------------|-------------2---------|
D|-------------2-------------|-------------2-------------|-------------2-----5---|
A|--3p0--------0--------0----|--3p0--------0--------0----|--3p0--------0-----5---|
E|--------3---------3--------|--------3---------3--------|--------3----------3---|

    e e   e    .q   e   e       e  e  e    .q   e   e       e e   e   .q    qth       q     q
e|---------------------------|---------------------------|-----------------------|----------------|
B|---------------------------|---------------------------|-----------------------|----------------|
G|-------------2-------------|-------------2-------------|-------------2-----7---|----7-----5-----|
D|-------------2-------------|-------------2-------------|-------------2-----7---|----7-----5-----|
A|--3p0--------0--------0----|--3p0--------0--------0----|--3p0--------0-----5---|----5-----3-----|
E|--------3---------3--------|--------3---------3--------|--------3--------------|----------------|

    e e   e    .q   e   e       e  e  e    .q   e   e       e e   e   .q    qt.h
e|---------------------------|---------------------------|-----------------------|
B|---------------------------|---------------------------|-----------------------|
G|-------------2-------------|-------------2-------------|-------------2---------|
D|-------------2-------------|-------------2-------------|-------------2-----5---|
A|--3p0--------0--------0----|--3p0--------0--------0----|--3p0--------0-----5---|
E|--------3---------3--------|--------3---------3--------|--------3----------3---|

outro

rest 3 measures

   hr  q   q

e|--------------|
B|--------------|
G|----7----5----|
D|----7----5----|
A|----5----3----|
E|--------------|


    e  e  e  e  e  e    qte     e   q   e e  e e      e  e  e  e  e  e    qte    er   e   e     q  q
e|--------------------------|----------------------|--------------------------|-----------------------|
B|--------------------------|----------------------|--------------------------|-----------------------|
G|--------------------------|----------------------|--------------------------|----------------7---5--|
D|--2--2--2--4--2--2-----5--|---2---4--------------|--2--2--2--4--2--2-----5--|-------2---2----7---5--|
A|--0--0--0--0--0--0--------|---0---0---3h4--3h4---|--0--0--0--0--0--0--------|-------0---0----5---3--|
E|--------------------------|----------------------|--------------------------|-----------------------|

        q
e|---------------|
B|---------------|
G|------2--------|
D|------2--------|
A|------0--------|
E|---------------|

************************************

| /   slide up
| \   slide down
| h   hammer-on
| p   pull-off
| ~   vibrato
| +   harmonic
| x   Mute note
| b   Bend
| pb  Pre-bend
| br  Bend release
| pbr Pre-bend release
| brb Bend release bend

************************************

            
            
Suggest correction
Creating personal tab
Creating personal tab
You can edit any tab online and save it as your Personal.

You can edit, replace or remove any tab part or add personal notes – all changes will be seen only by you.

Personal tabs can be accessed anytime from any device, even offline.
Learn more »
Give kudos to tab author, rate the tab!
1 2 3 4 5
comments
print report bad tab
guest
You may want to rate the tab now too:
select rating
Wanna post a correction for this tab? Suggest correction