Oops, an error
Loading. Please wait.

Dreams Ill Never See Tab

version 1
version 1

Solo

Whole song

Interactive

14,184 views 27 this week
no commentswrite comment
1 2 3 4 5
accurate
x 4
add to favorites
launch autoscroll
font size
0
reset
how to read this tab
guitar tuner
Tab Pro tools
  • play this tab
  • loop segment
  • change instrument
  • show fretboard
  • metronome
×
Best way to learn
"Dreams Ill Never See"
Autoscroll
slow
fast
+/-
esc
set tempo
stop
Difficulty
intermediate
Molly Hatchet
Dreams I'll Never see
Solo
Tabbed by Andrew Lipscomb
"Ive noticed that you cant find this anywhere so here you are got it from
a video took forever to type so hope you enjoy"

e|------------------------------------------|
b|------------------------------------------|
g|---7h9p7--7h9v---(9b)llr9--7h9p7---7------|
d|-/9-----9------------------------9--------|
a|------------------------------------------|
E|------------------------------------------|

e|---------------------------------------------------|
b|-------7h8p7---8---7h8p7---------------------------|
g|---7-7-------7---7-------9--7h9p7---7--9bllr9--7---|
d|----------------------------------9--------------9-|
a|---------------------------------------------------|
E|---------------------------------------------------|

e|-----------------------------------------------|
b|-----------------------------------------------|
g|----11h12p11--11h12--12--14b16--14b16--14------|
d|/12---------12---------------------------------|
a|-----------------------------------------------|
E|-----------------------------------------------|

e|-----------------------------------------------------------|
b|---12h13p12---13---12---12h13--13--15b17--15b17--15b17--15-|
g|14---------14---14---14------------------------------------|
d|-----------------------------------------------------------|
a|-----------------------------------------------------------|
E|-----------------------------------------------------------|

e|---14h15p14---15---14---14h15--15--17b19--17b19--17b19--17-|
b|15---------15---15---15------------------------------------|
g|-----------------------------------------------------------|
d|-----------------------------------------------------------|
a|-----------------------------------------------------------|
E|-----------------------------------------------------------|

e|-15-14h15p14---15---14--14h15--15--14h15p14--14-------------------|
b|------------15---15---15------------------------14-14-15-15/13-13-|
g|------------------------------------------------------------------|
d|------------------------------------------------------------------|
a|------------------------------------------------------------------|
E|------------------------------------------------------------------|

e|-----------------------------------------------------------|
b|12b13r12b13r12b13r12b13r12b13r12b13r12b13r13--10h12p10-----|
g|-------------------------------------------------------11--|
d|-----------------------------------------------------------|
a|-----------------------------------------------------------|
E|-----------------------------------------------------------|

e|--------------------------------------------------------|
b|--------------------------------------------------------|
g|---7h9p7--7h9v---(9b)llr9--7h9p7---9---7h9p7--9--7h9----|
d|-/9-----9------------------------9---9------9---9-------|
a|--------------------------------------------------------|
E|--------------------------------------------------------|

e|------------------------------------------------|
b|-8p7--10--8p7--10--8p7---8p7--10--8p7--10--8p7--|
g|----7---7----7---7----9p7---7---7----7---7----7-|
d|------------------------------------------------|
a|------------------------------------------------|
E|------------------------------------------------|

e|------------------------10-10-10-10-10-10-10-10-|
b|-8p7--10--8p7--10--8p7--10-10-10-10-10-10-10-10-|
g|----7---7----7---7-------7--7--7--7--7--7--7--7-|
d|------------------------------------------------|
a|------------------------------------------------|
E|------------------------------------------------|

e|-----------------------10p7-----------------------10|
b|-8p7--10--8p7--10--8p7-----8p7--10--8p7--10--8p7----|
g|----7---7----7---7------------7---7----7---7----7---|
d|----------------------------------------------------|
a|----------------------------------------------------|
E|----------------------------------------------------|

e|------------------------10-10-10-10-10-10-10-10-|
b|-8p7--10--8p7--10--8p7--10-10-10-10-10-10-10-10-|
g|----7---7----7---7-------7--7--7--7--7--7--7--7-|
d|------------------------------------------------|
a|------------------------------------------------|
E|------------------------------------------------|

e|------------------------------------------|
b|-------------------------------------7-7--|
g|---7h9p7--7h9v---(9b)llr9--7h9p7---7------|
d|-/9-----9------------------------9--------|
a|------------------------------------------|
E|------------------------------------------|

e|---------------------------------------------------|
b|-------7h8p7---8---7h8p7---------------------------|
g|---7-7-------7---7-------9--7h9p7---7--9bllr9--7---|
d|----------------------------------9----------------|
a|---------------------------------------------------|
E|---------------------------------------------------|

e|---------------------------------------|
b|---------------------------------------|
g|-/7bv--7b9r7b9r7v--7b9r7--5v--5/11-----|
d|---------------------------------------|
a|---------------------------------------|
E|---------------------------------------|

e|-------------------------------------|  x4
b|-------------------------------------|
g|-4p2p0--0----------------------------|
d|------4---4p2p0--000----033--3p0---0-|
a|----------------3----0h3---------3---|
E|-------------------------------------|

e|------------------------------------------------|
b|----------------------6-6-6-6-6-6h8-6h8p6-6-----|
g|-------7--5h7p5---5-5-7-7-7-7-7----------7--7-5-|
d|-------7--------7-------------------------------|
a|--3h5v------------------------------------------|
E|------------------------------------------------|

e|----------------------------------------------|
b|----------------------------------------------|
g|-7p5h7p5--5h7p5-------------------------------|
d|---------7------7-6-5-3--------------3--3-3-3-|
a|------------------------5-3-5--3h4h5---5------|
E|----------------------------------------------|

e|---------------------------------------8-----8-|
b|-------------------6---6-(8b)--10r8b10---8b10--|
g|-----5---5-5-5-5/7---7-------------------------|
d|-5/7---7---------------------------------------|
a|-----------------------------------------------|
E|-----------------------------------------------|

e|-----8----8----8----8----8-------------------|
b|-8b10-8b10-8b10-8b10-8b10--10r8-6h8p6--6-----|
g|--------------------------------------7--7-5-|
d|---------------------------------------------|
a|---------------------------------------------|
E|---------------------------------------------|

e|------------------------------------------------|
b|---10h13p10----10h13p10----10h13p10----10h13p10-|
g|-12---------12-----------12---------12----------|
d|------------------------------------------------|
a|------------------------------------------------|
E|------------------------------------------------|

e|-----------------------------------------------------|
b|---10h13p10----10h13p10----10h13p10------------------|
g|-12----------12----------12----------10h11-----------|
d|-------------------------------------------10--12p10-|
a|-----------------------------------------------------|
E|-----------------------------------------------------|

e|-----------------------------------------------------------|
b|-----------------------------------------------------------|
g|---------------------------------------------------10---10-|
d|-h12p10---10h12p10---------------------10----10/12---12----|
a|-------12----------12-11-10-8--8-10/12----12---------------|
E|-----------------------------------------------------------|

e|-----------------------------------------------|
b|---------------10b12-b12-b12-------------------|
g|-----7---7-7-7---------------7-9-7-(9b)-11rb11-|
d|-7/9---9---------------------------------------|
a|-----------------------------------------------|
E|-----------------------------------------------|

e|--------------------------------------------------|
b|-10-----------------------------------------------|
g|----11r9--7h9p7---7-------------------------------|
d|----------------9---9-7-9-9p7h9p7---7h9p7---------|
a|----------------------------------9-------9-8-7-5-|
E|--------------------------------------------------|

e|-----------------------------------------------------------|
b|-----15---15-15-15-17b-19r-17b19--19r17--15h17p15--15------|
g|-/16---16----------------------------------------16--16-14-|
d|-----------------------------------------------------------|
a|-----------------------------------------------------------|
E|-----------------------------------------------------------|

e|-----------------------------------------------|
b|---------------10b12-b12-b12-------------------|
g|-----7---7-7-7---------------7-9-7-(9b)-11rb11-|
d|-7/9---9---------------------------------------|
a|-----------------------------------------------|
E|-----------------------------------------------|
comments
print report bad tab
I want to post or [tab]
guest
You may want to rate the tab now too:
select rating
Please do not post tabs as comments. Select "correction" instead!