Oops, an error
Loading. Please wait.

Dreams Ill Never See chords

version 2
version 2

Whole song

Interactive

3,625 views 36 this week
no commentswrite comment
1 2 3 4 5
x 8
add to favorites
×
Save as Personal and add changes to this tab that will be seen only by you. Learn more ›
×
You can save this tab as Personal to edit and correct it or add notes. All changes will be seen only by you. Learn more »
launch autoscroll
font size
0
reset
transpose
0
reset
simplify chords
display chords
guitar tuner
backing track
0:00
0:00
edit
Autoscroll
slow
fast
+/-
esc
set tempo
stop
Author
Difficulty
Strumming
There is no strumming pattern for this song yet. and get +5 IQ
Dreams I'll Never See - Molly Hatchet (From 'Molly Hatchet', 1978)
Original Written By: Gregg Allman, 1969.
Chorded/Tabbed By: Skidaddy, Esq., G.Q.

4/4 TIME @ ~106 BPM (7 Min. 22 Sec.) in 'G'.

Chords Used:
-----------
               GUITAR             KEYBOARD
          E  A  D  G  B  e     Bass|  Chord
         ------------------    ---------------
D4     -  x  5  5  x  x  x      D    D-G
D3     -  x  5  4  x  x  x      D    D-F#
C3     -  x  3  2  x  x  x      C    C-E
G      -  3  2  0  0  3  3      G    B-D-G
F      -  1  3  3  2  1  1      F    A-C-F
E7#9   -  0  7  6  7  8  0      E    G#-D-E-G  (No 5th - 'Jimi' Chord)
C      -  x  3  2  0  1  0      C    G-C-E
Bb     -  x  1  3  3  3  1      Bb   Bb-D-F
A7#9   -  x  0  5  6  8  8      A    A-C-C#-G  (No 5th - 'Jimi' Chord)
D/A    -  x  x  7  7  7  x      A    A-D-F#
Ds4/A  -  x  x  7  7  8  x      A    A-D-G
D5     -  x  x  7  7  x  x      D    A-D
C/G    -  x  x  5  5  5  x      G    G-C-E

INTRO: [20 M]
-----

|D4    |D3    |C3    |D3    |D4    |D3    |D4    |D3    |D4    |D3    |


|D4    |D3    |D4    |D3    |D4    |D3    |D4    |D3    |D4    |D3    |

VERSE #1: [16 M]
--------

|D4                |D3            |D4            |D3                       |
     Just one… more morn-in'…          I have… to wake up…  with the blues…

|D4                  |D3                  |D4            |D3                 |
     Pulled my-… self out of bed,… yeah…       Put on… my walk-in' shoes…

|D4                  |D3                  |D4                    |D3           |
     Climb up… on the hill-top,… ba-… by…     to see what I could see,… yeah…

|D4                 |D3                       |D4                |
      Whole world's… fall-in' down,… ba-… by,…     right down… in

|D3                         |
 front of me…  'Cause I been

CHORUS #1: [12 M]
---------

|G                    |F                                   |E7#9    |E7#9    |
 hung up,…   Lord, on… dreams…  I'm nev-er gon-na see, yeah…

|C                      |Bb                               |A7#9    |A7#9    |
   Lord, help me, ba-by,…  dreams get the best of me, yeah…

|D4      |D3      |D4      |D3      |

VERSE #2: [16 M]
--------

|D4                  |D3           |D4                 |D3                 |
    Pull my-… self to-geth-er…         Gon-na put on… a new face,… yeah…

|D4                         |D3                  |D4                       |
   Gon' climb down… from the hill-top,… ba-… by,…    Lord, get back… in the

|D3                   |D4                     |D3               |
 race…    'Cause I got dreams,…    I've got my dreams…    to… re-

|D4                    |D3               |D4                          |
-mem-ber,…   ooh Lord,… yeah…    I've got dreams,…   yeah, I've got my

|D3               |D4                    |D3                    |
 dreams,    to… re-mem-ber,…   ooh Lord,… yeah…    'Cause I been

CHORUS #2: [12 M]
---------

|G                    |F                                    |E7#9            |
 hung up,…   Lord, on… dreams…  I'm nev-er gon-na see, yeah,…    Lord, yeah…

|E7#9    |C                      |Bb                                |A7#9     |
            Lord, help me, ba-by,…  dreams get the best of me, yeah,…    ooh…

|A7#9    |D4      |D3      |D4      |D3      |

GUITAR SOL0 #1: [32 M]
--------------

|D4      |D3      |D4      |D3      |D4      |D3      |D4      |D3      |


|D4      |D3      |D4      |D3      |D4      |D3      |D4      |D3      |


|D4      |D3      |D4      |D3      |D4      |D3      |D4      |D3      |


|D4      |D3      |D4      |D3      |D4      |D3      |C3      |D3      |

GUITAR SOL0 #2: [32 M]
--------------

|D4      |D3      |D4      |D3      |D4      |D3      |D4      |D3      |


|D4      |D3      |D4      |D3      |D4      |D3      |D4      |D3      |


|D4      |D3      |D4      |D3      |D4      |D3      |D4      |D3      |


|D4      |D3      |D4      |D3      |D4      |D3      |D4      |D3      |

BRIDGE: [20 M] ('h' = Hammer On / 'p' = Pull Off) -
------

   Ds4/A       Ds4/A                Ds4/A       Ds4/A                 ─┐
  D/A   D/A         D/A            D/A   D/A         D/A               │
e|--------------------------------|--------------------------------|   │
B|7-8---7-7---7-8---7---7---------|7-8---7-7---7-8---7---7---------|   │
G|7-7---7-7---7-7---7---7---------|7-7---7-7---7-7---7---7---------|   │
D|7-7---7-7---7-7---7---7-----7h9-|7-7---7-7---7-7---7---7-----7h9-|   │
A|------------------------7h9-----|------------------------7h9-----|   │
E|--------------------------------|--------------------------------|   │
  1   +   2   +   3   +   4   +    1   +   2   +   3   +   4   +       │
                                                                       ├► x2
   Ds4/A       Ds4/A      Ds4/A D5D/A   D/A         D/A      D/A   C/G                                 │
e|--------------------------------|--------------------------------|   │
B|7-8---7-7---7-8---7---7---8p7---|5-------------------------------|   │
G|7-7---7-7---7-7---7---7---7---7-|5-------------------------------|   │
D|7-7---7-7---7-7---7---7---7---7-|5-------------------------------|   │
A|--------------------------------|--------------------------------|   │
E|--------------------------------|--------------------------------|   │
  1   +   2   +   3   +   4   +    1   +   2   +   3   +   4   +      ─┘ 

  NC                                                                  ─┐
e|--------------------------------|--------------------------------|   │
B|--------------------------------|--------------------------------|   │
G|--------------------------------|--------------------------------|   ├► x2
D|------------------------0-------|--------------------------------|   │
A|3p2h3p2h3p2h3p2h3p2h3-----------|3p2h3p2h3p2h3p2h3p2h3p2-0-0-----|   │
E|--------------------------------|--------------------------------|   │
  1   +   2   +   3   +   4   +    1   +   2   +   3   +   4   +      ─┘

- Repeat 1st TAB -

   Ds4/A       Ds4/A                Ds4/A       Ds4/A                 ─┐
  D/A   D/A         D/A            D/A   D/A         D/A               │
e|--------------------------------|--------------------------------|   │
B|7-8---7-7---7-8---7---7---------|7-8---7-7---7-8---7---7---------|   │
G|7-7---7-7---7-7---7---7---------|7-7---7-7---7-7---7---7---------|   │
D|7-7---7-7---7-7---7---7-----7h9-|7-7---7-7---7-7---7---7-----7h9-|   │
A|------------------------7h9-----|------------------------7h9-----|   │
E|--------------------------------|--------------------------------|   │
  1   +   2   +   3   +   4   +    1   +   2   +   3   +   4   +       │
                                                                       ├► x2
   Ds4/A       Ds4/A      Ds4/A D5D/A   D/A         D/A      D/A   C/G                                 │
e|--------------------------------|--------------------------------|   │
B|7-8---7-7---7-8---7---7---8p7---|5-------------------------------|   │
G|7-7---7-7---7-7---7---7---7---7-|5-------------------------------|   │
D|7-7---7-7---7-7---7---7---7---7-|5-------------------------------|   │
A|--------------------------------|--------------------------------|   │
E|--------------------------------|--------------------------------|   │
  1   +   2   +   3   +   4   +    1   +   2   +   3   +   4   +      ─┘

RE-INTRO: [12 M]
--------

|D4      |D3           |D4      |D3            |D4      |D3      |
              Al-right,…          yeah-ee-eah…

|D4      |D3     |D4      |D3      |D4      |D3      |

VERSE #3: [16 M]
--------

|D4                  |D3           |D4           |D3                 |
    Pull my-… self to-geth-er…          Put on… a new face,… yeah…

|D4                     |D3                  |D4                       |
    Climb down… from the hill-top,… ba-… by,…    Lord, get back… in the

|D3                   |D4                     |D3               |
 race…    'Cause I got dreams,…    I've got my dreams…    to… re-

|D4                    |D3               |D4                          |
-mem-ber,…   ooh Lord,… yeah…    I've got dreams,…   yeah, I've got my

|D3               |D4                    |D3                   |
 dreams,    to… re-mem-ber,…   ooh Lord,… yes…    And I've been

CHORUS #3: [7.25 M] 'CODA' -
---------

|G                    |F                                  |
 hung up,…   Lord, on… dreams…  I'm nev-er gon-na see, yes…

|E7#9              |E7#9       |C                       |
…   No, babe,…  no,…    babe…     Lord, help me, ba-by,…
   
|Bb                              |A7#9              |A7#9
…  dreams get the best of me, yes…    Al-right… Yah!…


            
            
Suggest correction
Creating personal tab
Creating personal tab
You can edit any tab online and save it as your Personal.

You can edit, replace or remove any tab part or add personal notes – all changes will be seen only by you.

Personal tabs can be accessed anytime from any device, even offline.
Learn more »
comments
print report bad tab
guest
You may want to rate the tab now too:
select rating
Wanna post a correction for this tab? Suggest correction