Oops, an error
Loading. Please wait.

Dreams Ill Never See Tab

version 2
version 2

Whole song

Interactive

6,702 views 9 this week
no commentswrite comment
1 2 3 4 5
excellent!
x 6
add to favorites
launch autoscroll
font size
0
reset
how to read this tab
guitar tuner
Autoscroll
slow
fast
+/-
esc
set tempo
stop
Help us to improve Ultimate-Guitar.com Take our survey!
×
Author
Difficulty
intermediate
Dreams Ill Never See- Molly Hatchet


Intro
E|---------------|
B|---------------|
G|---------------|
D|--5--4--2--4---|
A|--5--5--3--5---|
E|---------------|


Intro/Verses
E|-----------------------------------------------|
B|-----------------------------------------------|
G|-----------------------------------------------|
D|--5-5-5-5-5-5-5-5-5-5--4-4-4-4-4-4-4-4-4-4-----|
A|--5-5-5-5-5-5-5-5-5-5--5-5-5-5-5-5-5-5-5-5-----| Intro and Verse Total: x16
E|-----------------------------------------------|
Pm. ...................  ...................


Harmonics During Intro
E|--------------------|
B|--------------------|
G|------------7*------|
D|--12*---7*------7*--|
A|--------------------|
E|--------------------|
Sounds good if you bend the neck a couple times per harmonic.


CHORUS

Rhythm
E|---------------------------|----------------------------------|
B|----------8---8-8---8-8-8--|-----------13---13-13---13-13-13--|
G|----------7---7-7---7-7-7--|--5--3-----12---12-12---12-12-12--|
D|--5--3----6---6-6---6-6-6--|--5--3-----11---11-11---11-11-11--|
A|--5--3----7---7-7---7-7-7--|--3--1-----12---12-12---12-12-12--|
E|--3--1---------------------|----------------------------------|
    G  F                        C  A#

Lead
E|-------------------------------------------|----------17---17--17----17--17--17----|
B|----------17---17--17----17--17--17--------|----------20b--20b-20b---20b-20b-20b---|
G|----------19b--19b-19b---19b-19b-19b-------|--5--3---------------------------------|
D|--5--3-------------------------------------|--5--3---------------------------------|
A|--5--3-------------------------------------|--3--1---------------------------------|
E|--3--1-------------------------------------|---------------------------------------|
    G  F                                        C  A#

Verse 2
E|-----------------------------------------------|
B|-----------------------------------------------|
G|-----------------------------------------------|
D|--5-5-5-5-5-5-5-5-5-5--4-4-4-4-4-4-4-4-4-4-----|
A|--5-5-5-5-5-5-5-5-5-5--5-5-5-5-5-5-5-5-5-5-----| Verse 2 x 5
E|-----------------------------------------------|
Pm. ...................  ...................


Then: Quick strum of these two chords.
E|---------|
B|---------|
G|---------|
D|--2--4---|
A|--3--5---|
E|---------|


Then:
E|-----------------------------------------------|
B|-----------------------------------------------|
G|-----------------------------------------------|
D|--5-5-5-5-5-5-5-5-5-5--4-4-4-4-4-4-4-4-4-4-----|
A|--5-5-5-5-5-5-5-5-5-5--5-5-5-5-5-5-5-5-5-5-----| Verse 2 x4
E|-----------------------------------------------|
Pm. ...................  ...................


CHORUS

Rhythm
E|---------------------------|----------------------------------|
B|----------8---8-8---8-8-8--|-----------13---13-13---13-13-13--|
G|----------7---7-7---7-7-7--|--5--3-----12---12-12---12-12-12--|
D|--5--3----6---6-6---6-6-6--|--5--3-----11---11-11---11-11-11--|
A|--5--3----7---7-7---7-7-7--|--3--1-----12---12-12---12-12-12--|
E|--3--1---------------------|----------------------------------|
    G  F                        C  A#

Lead
E|-------------------------------------------|----------17---17--17----17--17--17----|
B|----------17---17--17----17--17--17--------|----------20b--20b-20b---20b-20b-20b---|
G|----------19b--19b-19b---19b-19b-19b-------|--5--3---------------------------------|
D|--5--3-------------------------------------|--5--3---------------------------------|
A|--5--3-------------------------------------|--3--1---------------------------------|
E|--3--1-------------------------------------|---------------------------------------|
    G  F                                        C  A#


Rhythm during solo:
E|-----------------------------------------------|
B|-----------------------------------------------|
G|-----------------------------------------------|
D|--5-5-5-5-5-5-5-5-5-5--4-4-4-4-4-4-4-4-4-4-----|
A|--5-5-5-5-5-5-5-5-5-5--5-5-5-5-5-5-5-5-5-5-----|
E|-----------------------------------------------|
Pm. ...................  ...................


After solo:                x3      x1
E|-----------------------------|-----|
B|--8--7--x--8--7--x-----------|-----|
G|--7--7--x--7--7--x-----------|--5--|
D|--7--7--x--7--7--x------7h9--|--5--| Whole Section x2
A|--------------------7h9------|--3--|
E|-----------------------------|-----|

E|-----------------------------------------------------------------------|
B|-----------------------------------------------------------------------|
G|-----------------------------------------------------------------------|
D|-----------------------------------------------------------------------|
A|--3-2-2-2--3-2-2-2--3-2-2-2--3-5-----3-2-2-2--3-2-2-2--3-2-2-2--3-0----|
E|-----------------------------------------------------------------------|


                           x3      x1
E|-----------------------------|-----|
B|--8--7--x--8--7--x-----------|-----|
G|--7--7--x--7--7--x-----------|--5--|
D|--7--7--x--7--7--x------7h9--|--5--| Whole Section x2
A|--------------------7h9------|--3--|
E|-----------------------------|-----|

Last verse
E|-----------------------------------------------|
B|-----------------------------------------------|
G|-----------------------------------------------|
D|--5-5-5-5-5-5-5-5-5-5--4-4-4-4-4-4-4-4-4-4-----| x9
A|--5-5-5-5-5-5-5-5-5-5--5-5-5-5-5-5-5-5-5-5-----|
E|-----------------------------------------------|
Pm. ...................  ...................

Then: Quick strum of these two chords.
E|---------|
B|---------|
G|---------|
D|--2--4---|
A|--3--5---|
E|---------|

E|-----------------------------------------------|
B|-----------------------------------------------|
G|-----------------------------------------------|
D|--5-5-5-5-5-5-5-5-5-5--4-4-4-4-4-4-4-4-4-4-----| x4
A|--5-5-5-5-5-5-5-5-5-5--5-5-5-5-5-5-5-5-5-5-----|
E|-----------------------------------------------|
Pm. ...................  ...................


CHORUS

Rhythm
E|---------------------------|----------------------------------|
B|----------8---8-8---8-8-8--|-----------13---13-13---13-13-13--|
G|----------7---7-7---7-7-7--|--5--3-----12---12-12---12-12-12--|
D|--5--3----6---6-6---6-6-6--|--5--3-----11---11-11---11-11-11--|
A|--5--3----7---7-7---7-7-7--|--3--1-----12---12-12---12-12-12--|
E|--3--1---------------------|----------------------------------|
    G  F                        C  A#

Lead
E|-------------------------------------------|----------17---17--17--------|
B|----------17---17--17----17--17--17--------|----------20b--20b-20b-------|
G|----------19b--19b-19b---19b-19b-19b-------|--5--3-----------------------|
D|--5--3-------------------------------------|--5--3-----------------------|
A|--5--3-------------------------------------|--3--1-----------------------|
E|--3--1-------------------------------------|-----------------------------|
    G  F                                        C  A#



That should be everything but the solo!  If you want to learn the solo check out the 
"Dreams Ill Never See Solo Tab"!  The person who did that did a good job.


(Lyrics)

Just one more morning,I had to wake up with the blues.
Pulled myself out of bed yeah,put on my walking shoes.
Climbed up on a hilltop baby, to see what I could see yeah.
The whole world's falling down babe.Right down in front of me.

(Chorus)

'Cause I've been hung up on all them dreams I'm never gonna see yeah.
Lord help me babe,dreams get the best of me, yeah.


Pull myself together,and put on a new face yeah.
Climb down from the hilltop baby,
Lord get back in the race.

(Chorus)

'Cause I've got dreams. I've got my dreams to remember,Lord yeah...
I've got dreams! I've got my dreams to remember, Lord yeah...
Cause I've been hung up on all them dreams I'm never gonna see yeah. Oh yeah!
Lord help me babe, dreams get the best of me yes.

(Guitar Solo)(Bridge) Allright, yeah e yeah...

Pulled myself together put on a new face yeah.
Climbed down from the hilltop baby
Lord get back in the race!

(Chorus)

'Cause I've got dreams! I've got my dreams to remember, Lord yeah...
I've got dreams, yeah I've got my dreams to remember, Lord yes...
And I've been hung up on all them dreams I'm never gonna see yes. No babe! Nooooooo babe!
Lord help me babe, dreams get the best of me yes.
Allright! Yeah!
Suggest correction
comments
print report bad tab
guest
You may want to rate the tab now too:
select rating
Wanna post a correction for this tab? Suggest correction