Oops, an error
Loading. Please wait.

Fall Of The Peacemakers chords

151 views 12 this week
no commentswrite comment
1 2 3 4 5
2 more votes to show rating
add to favorites
×
Save as Personal and add changes to this tab that will be seen only by you. Learn more ›
×
You can save this tab as Personal to edit and correct it or add notes. All changes will be seen only by you. Learn more »
launch autoscroll
font size
0
reset
transpose
0
reset
display chords
guitar tuner
edit
Autoscroll
slow
fast
+/-
esc
set tempo
stop
Author
Difficulty
Strumming
There is no strumming pattern for this song yet. and get +5 IQ
Another way to play the song including chords since  there are barely any tabs for this kickass song 

[Intro]
e|----------------------------------------------------------------0--3-1-3---------------------|
B|--------------------------------------------------------0-1-3-------------3-1-0-1-0----------|
G|------------2-0-2------------------2-0-2--------0-2---------------------------------0-2------|
D|-------------------0-2---------------------0-2-3---------------------------------------------|
A|-3-2---0----------------3-2----0-------------------------------------------------------------|
E|------3------------------------3-------------------------------------------------------------|

e|----------------------------------------------------------------0---3-1-3--------------------|
B|--------------------------------------------------------0-1-3-------------3-1-0-1-0----------|
G|------------2-0-2------------------2-0-2--------0-2---------------------------------0-2------|
D|-------------------0-2---------------------0-2-3---------------------------------------------|
A|-3-2---0----------------3-2----0-------------------------------------------------------------|
E|------3------------------------3-------------------------------------------------------------|

Solo in Am pentatonic, add b5th if necessary.

[Verse 1]  

  Am                                C
A king without a sword, a land without a king
 G                                Am
Truth without a voice, one song left to sing
G                Am
One song to sing
Am                                      C
A wise man told me theres something you should know
G                                    Am
The way to judge a man is to look into his soul
G                             Am
And youll soon see everything
C                                        G
A voice from the past cried give peace a chance
Am
He paid our price now hes free at last
C     G            Am
And imagine, we called him a dreamer

[Chorus]
C                        G
How many times must good men die
Am
How many tears must our children cry
G                                  Am
Till we suffer no more sadness
G            Am         G           Am
Stop the madness, stop the madness

Solo in Am pentatonic, add b5th if necessary.

[Verse 2]
Am                        C
Is ashes are ashes and dust is dust
G                                  Am
And our journey ends then return we must
G                             Am
To the sands of our shores
Am                            C
White doves will fly, peace to all
G                        Am
But tell me why do our peacemakers fall
G                      Am
Must we bury any more
C                                  G
A hush from the crowd as the horse rode by
Am
A black lace veil hid the tears from her eyes
C        G                 Am
And we all wept in silence

[Chorus]
C                         G
How many times must good men die
Am
How many tears will our children cry
G                                 Am
Till we suffer no more sadness
G          Am           G                  Am B          Am C G Em Am¦..
Stop the madness, stop all the madness.

[Solo] in Am pentatonic, add b5th if necessary, over the chord progression above.
Am pentatonic with b5:
e|-17-15---------------------------------------------------------|
B|-----17-16-15--------------------------------------------------|
G|-------------14-12---------------------------------------------|
D|---------------------14-13-12-10-------------------------------|
A|-------------------------------------12-10---------------------|
E|---------------------------------------------12-11-10-8-5------|

Just improvise within that for the solos. You know what type of sound to go for if youve heard the song.
B

            
            
Suggest correction
Creating personal tab
Creating personal tab
You can edit any tab online and save it as your Personal.

You can edit, replace or remove any tab part or add personal notes – all changes will be seen only by you.

Personal tabs can be accessed anytime from any device, even offline.
Learn more »
Give kudos to tab author, rate the tab!
1 2 3 4 5
comments
print report bad tab
guest
You may want to rate the tab now too:
select rating
Wanna post a correction for this tab? Suggest correction