Oops, an error
Loading. Please wait.

Sing It Back Bass Tab

version 1
version 1

Intro

Whole song

Interactive

10,379 views 12 this week
no commentswrite comment
1 2 3 4 5
3 more votes to show rating
add to favorites
launch autoscroll
font size
0
reset
guitar tuner
Autoscroll
slow
fast
+/-
esc
set tempo
stop
Help us to improve Ultimate-Guitar.com Take our survey!
×
Author
Difficulty
intermediate
Moloko - Sing It Back
Tabbed By: Jonnyboy139
e-mail: jonnyboy139@hotmail.com

Standard Tuning E A D G

I’ve seen others, but this is an easier way for me!

Repeat the last 2 bars a few times then back to 2nd half of first bar.


G|------------------------------------|------------------------------------|
D|------------------------------------|------------------------------------|
A|------------------------------------|----6-------------6------8—6--------|
E|-------------------------6--4--6----|-----------6------------------6-----|

G|------------------------------------|------------------------------------|
D|------------------6---------8-------|------------------9--8-----9--8-----|
A|-----------6-------------6-----6----|-----------8------------8-----------|
E|----4-------------------------------|----6-------------------------------|

G|------------------------------------|------------------------------------|
D|------------------------------------|------------------------------------|
A|----6--------------6--8--9--8--6----|----6-------------6---------6-------|
E|-----------6------------------------|-----------6-------------6-----6----|

G|------------------------------------|------------------------------------|
D|------------------6---------8-------|------------------8--9--8-----------|
A|-----------6-------------6-----6----|-----------8---------------9--8-----|
E|----4-------------------------------|----6-------------------------------|

G|------------------6--6--6—6h8-------|--------------8----10-----8---------|
D|-----------8------------------7h8---|--------8-----------------------8---|
A|----6-------------------------------|--6---------------------------------|
E|------------------------------------|------------------------------------|


G|------------------------------------|------------------------------------|
D|---------------6-----8-----6--------|--------------8-----9-----8---------|
A|---------6-----------------------6--|--------8-----------------------8---|
E|---4--------------------------------|--6---------------------------------|

G|---------------6-----8-----------6--|--------------8----10-----8---------|
D|---------8-----------------8--------|--------8-----------------------8---|
A|---6--------------------------------|--6---------------------------------|
E|------------------------------------|------------------------------------|

G|------------------------------------|------------------------------------|
D|---------------6-----8-----6--------|--------------8-----9-----8---------|
A|---------6-----------------------6--|--------8-----------------------8---|
E|---4--------------------------------|--6---------------------------------|




 h  hammer-on



============================================================================
Suggest correction
Give kudos to tab author, rate the tab!
1 2 3 4 5
comments
print report bad tab
guest
You may want to rate the tab now too:
select rating
Wanna post a correction for this tab? Suggest correction