Oops, an error
Loading. Please wait.

Sing It Back Bass Tab

version 2
version 2

Whole song

Interactive

11,810 views 33 this week
2 commentsread comments
1 2 3 4 5
accurate
x 4
add to favorites
launch autoscroll
font size
0
reset
guitar tuner
Autoscroll
slow
fast
+/-
esc
set tempo
stop
Help us to improve Ultimate-Guitar.com Take our survey!
×
Author
Difficulty
intermediate
Moloko - Sing It Back
Tabbed by RTBM
Standard Tuning: EADG

Verse 1 + intro
G|---------------------------------------------------|
D|----------3/4--6-6-8----/9-8-88-------3/4-3--------|
A|-6---6/8-6---6--6-6-6--8----8--6-6-4-6-----6-------|
E|--4-6---------4-------6-----------6----------------|


G|-------------------------------------8-66-6h8------|
D|-------------6-6-/8----/9-8---------8--------6h8---|
A|-6---6--4h6---6-6--6--8----8-9-8-6-6---------------|
E|--4h6--6---4---------6-----------------------------|


Chorus: 2x
G|------8-8/10-8------------------------------6-8-6--|
D|--------------8-----6-6/8-6------8-8/9-8---8---8---|
A|-6-4/6-----------4h6-------6--6-8-------8-6--------|
E|--6-------------4------------6---------------------|


Verse 2: 2x
G|---8-10/11-10-----------------------------6-8-8----|
D|--8----------8---6-8/9-8-----8-8/9-8---6h8---8-----|
A|-6--------------6-------6---8-------8-6------------|
E|---------------4-----------6-----------------------|


Chorus: 2x
G|------8-8/10-8------------------------------6-8-6--|
D|--------------8-----6-6/8-6------8-8/9-8---8---8---|
A|-6-4/6-----------4h6-------6--6-8-------8-6--------|
E|--6-------------4------------6---------------------|


Break: 2x
G|-----8-10/11-10--------------------------------6-8-8--|
D|--6h8----------8-----6-8/9-8------8-8/9-8---6h8---8---|
A|-6----------------4h6-------6--6h8-------8-6----------|
E|-----------------4------------6-----------------------|


Verse 3: 4x
G|---8-10/11-10-----------------------------6-8-8----|
D|--8----------8---6-8/9-8-----8-8/9-8---6h8---8-----|
A|-6--------------6-------6---8-------8-6------------|
E|---------------4-----------6-----------------------|

Outro                        Ending:   A        B 
G|---------------------------------|--------|-88-6h8-|
D|-------------6------8/9-8--------|-6/8-6--|---8----|
A|-6---6----456----6h8---8-8-6-4-6-|------4-|--------|
E|--4h6--654----456----------------|--------|--------|


Outro: Play Till Very End
G|---------------------------------------------6-----|
D|------------------6-8------8/9-8-----------/8-8----|
A|-6--4-6-------45h6-6-8--6h8-----9-8--6-4-6---------|
E|--6-----4-654----------6--------------6------------|
Suggest correction
What's this?
You can suggest a correction to this tab. Community and Mods will review your correction and vote to approve or reject it.
comments
print report bad tab
2 comments total.
0 reply
PAH1984 13 wrote on April 25 2013, 08:29 pm

I saw this tab had five stars so I thought I'd check it out. Obviously the person the submitted it gave it the 5 stars - because it is completely wrong! The other tab listed is way better - almost perfect in fact.

0 reply
Gapiro 53 wrote on February 16 2014, 01:40 pm

I dont see how it is completely wrong, it seems pretty damned accurate to me

guest
You may want to rate the tab now too:
select rating
Please do not post tabs as comments. Select "correction" instead!