Oops, an error
Loading. Please wait.

Amateur Tab

version 1
version 1

Whole song

Interactive

by Molotov
25,948 views 27 this week
4 commentsread comments
1 2 3 4 5
x 6
add to favorites
launch autoscroll
font size
0
reset
how to read this tab
guitar tuner
Autoscroll
slow
fast
+/-
esc
set tempo
stop
Author
Tuning: Standard

[Intro]
(with distortion)
e|-----------------------------------|
B|-----------------------------------|
G|-----------------------------------| (4x)
D|--------5--------------------------|
A|----5-----7/3--7-----5-------------|
E|--7---7----------(0)---(0)---------|
   
[Bridge] 
(with distortion)
e|------------|
B|------------|
G|------------|
D|--------5---|
A|----5-------|
E|--7---7-----|

[Verse] 
(with distortion)
e|--------------------------|
B|--------------------------|
G|-------5----2----4--------|
D|--2----5----2----4----2---|
A|--2----3----0----2----2---|
E|--0-------------------0---|

[Bridge]
(Riff)
e|--------------------|
B|--------------------|
G|--------------------| (x3)
D|------9---7---5-4---|
A|--7-7---7---7-------|
E|--------------------|

[Instrumental]
(with distortion)
e|-----------------------------------|
B|-----------------------------------|
G|-----------------------------------| (2x)
D|--------5--------------------------|
A|----5-----7/3--7-----5-------------|
E|--7---7----------(0)---(0)---------|

[Bridge]
(Riff)
e|--------------------|
B|--------------------|
G|--------------------|
D|------9---7---5-4---|
A|--7-7---7---7-------|
E|--------------------|

[Verse] 
(with distortion)
e|--------------------------|
B|--------------------------|
G|-------5----2----4--------|
D|--2----5----2----4----2---|
A|--2----3----0----2----2---|
E|--0-------------------0---|

[Bridge]
(Riff)
e|--------------------|
B|--------------------|
G|--------------------| (x3)
D|------9---7---5-4---|
A|--7-7---7---7-------|
E|--------------------|

[Instrumental]
(with distortion)
e|-----------------------------------|
B|-----------------------------------|
G|-----------------------------------| (2x)
D|--------5--------------------------|
A|----5-----7/3--7-----5-------------|
E|--7---7----------(0)---(0)---------|

[Verse] 
(with distortion)
e|--------------------------|
B|--------------------------|
G|-------5----2----4--------|
D|--2----5----2----4----2---|
A|--2----3----0----2----2---|
E|--0-------------------0---|

(Riff)
e|--------------------|
B|--------------------|
G|--------------------| (x3)
D|------9---7---5-4---|
A|--7-7---7---7-------|
E|--------------------|

[Bridge]
(Riff)
e|--------------------|
B|--------------------|
G|--------------------|
D|------9---7---5-4---|
A|--7-7---7---7-------|
E|--------------------|

(Riff 2) 
(with distortion)
e|--12h-10h-----10h-----10h-12h-10h-----10h---|
B|----------12h-----12h-------------12h-------|
G|--------------------------------------------| (x4)
D|--------------------------------------------|
A|--------------------------------------------|
E|--------------------------------------------|

[Verse] 
(with distortion)
e|--------------------------|
B|--------------------------|
G|-------5----2----4--------|
D|--2----5----2----4----2---|
A|--2----3----0----2----2---|
E|--0-------------------0---|

(Riff)
e|--------------------|
B|--------------------|
G|--------------------| (x3)
D|------9---7---5-4---|
A|--7-7---7---7-------|
E|--------------------|

[Bridge]
(Riff)
e|--------------------|
B|--------------------|
G|--------------------|
D|------9---7---5-4---|
A|--7-7---7---7-------|
E|--------------------|


************************************

| /    Slide up
| (n)  Ghost note
| h    Hammer-on

************************************
Suggest correction
comments
print report bad tab
4 comments total. Showing first comments.
0 reply
cocox2 640 Dec 08, 2004 07:00 PM

first tab for amateur!!! so rate please...

0 reply
nicoxic 692 Dec 27, 2004 07:00 PM

sos una marica coco para que pones todo en ingles??!! gil!!

0 reply
cocox2 640 Dec 30, 2004 07:00 PM

Por que soy un chico muy profesional, no te olvides que soy coc...jojojoj

guest
You may want to rate the tab now too:
select rating
Wanna post a correction for this tab? Suggest correction