Oops, an error
Loading. Please wait.

Apocalypshit Bass Tab

820 views 15 this week
no commentswrite comment
1 2 3 4 5
3 more votes to show rating
add to favorites
launch autoscroll
font size
0
reset
guitar tuner
Autoscroll
slow
fast
+/-
esc
set tempo
stop
Help us to improve Ultimate-Guitar.com Take our survey!
×
Intro
G|------|-----|----------|
D|------|-----|----------|
A|------|-3-5-|-3-4-3-55-|
E|-14\2-|-----|----------|
 |2veces|     | 15 Veces |

Verso *2veces*
G|-----|----------|
D|-----|----------|
A|-3-5-|-3-4-3-55-|
E|-----|----------|
       | 15 Veces |

Coro *2veces*
G|------|----------|
D|------|----------|
A|-3----|-3-4-3-55-|
E|----3-|----------|
        | 4  Veces |

Puente
G|------|-----|----------|
D|------|-----|----------|
A|------|-3-5-|-3-4-3-55-|
E|-14\2-|-----|----------|
 |2veces|     | 15 Veces |

Verso *2veces*
G|-----|----------|
D|-----|----------|
A|-3-5-|-3-4-3-55-|
E|-----|----------|
       | 15 Veces |

Coro *4veces*
G|------|----------|
D|------|----------|
A|-3----|-3-4-3-55-|
E|----3-|----------|
        | 4  Veces |

Solo **Slap y Pop**
G|---77-5---------55-4-------|x12
D|--------5-7-5-7------4-5-6-|
A|-5-------------------------|
E|---------------------------|
   s pp p s s s s pp p s s s 

Coro *4veces*
G|------|----------|
D|------|----------|
A|-3----|-3-4-3-55-|
E|----3-|----------|
        | 4  Veces |

Escuchá la canción para saber el ritmo
Suggest correction
Give kudos to tab author, rate the tab!
1 2 3 4 5
comments
print report bad tab
guest
You may want to rate the tab now too:
select rating
Wanna post a correction for this tab? Suggest correction