Oops, an error
Loading. Please wait.

Cerdo Tab

242 views 1 this week
no commentswrite comment
1 2 3 4 5
3 more votes to show rating
add to favorites
launch autoscroll
font size
0
reset
how to read this tab
guitar tuner
Autoscroll
slow
fast
+/-
esc
set tempo
stop
Help us to improve Ultimate-Guitar.com Take our survey!
×
Esta parte es muy dificil sin wah y no estoy muy seguro de que sea asi
(se repite 4 vaces)
|---------------------------------|
|--^----^----^--------------^-----|
|--6~~--6~~--4~~--^----^----4~~---|
|-----------------4~~--6~~--------|
|---------------------------------|
|---------------------------------|

se repite 3 veces
|-------------------|
|-------------------|
|-------------------|
|----------2--------|
|--4--2--4---2--4---|
|-------------------|

y luego...
|-------------------|
|-------------------|
|-------------------|
|-------------------|
|--4--2--4--2-------|
|-------------------|

Cerdo, no me llames cerdo...
(esto no lo toca la guitarra, solo es un efecto de sonido) 
|-----------------------------------------------|
|-14~~~--12~~~--14~~~--12~~~--9~~~--7~~~--------|
|-----------------------------------------6~~~--|
|-----------------------------------------------|
|-----------------------------------------------|
|-----------------------------------------------|

|-1\4-4-4--4-4-----1/4-4-4--4-4-----1/4-4-4--4-4-----1/4-4-4--4-4---|
|-2\5-5-5--5-5-----2/5-5-5--5-5-----2/5-5-5--5-5-----2/5-5-5--5-5---|
|-------------------------------------------------------------------|
|-------------------------------------------------------------------|
|-------------------------------------------------------------------|
|-------------------------------------------------------------------|

En una ocasion tuvo un encuentro con el loco...
(esto no lo toca la guitarra, solo es un efecto de sonido) 
|-------------------------|   |------------------------|                                    
|-------------------------|   |------------------------|
|-13~~--9~~--11~~---------|   |-------11~~--13~~--9~~--|
|------------------10~~---|   |----9~~-----------------|
|-------------------------|   |------------------------|
|-------------------------|   |------------------------|

|-----------------|
|-----------------|
|-----------------|
|-----------------|
|--4--4--4---2----|
|-----------------|


Final
|-----------------|
|-----------------|
|--4~~--5~~--6~~--|
|-----------------|
|-----------------|
|-----------------|
Suggest correction
Give kudos to tab author, rate the tab!
1 2 3 4 5
comments
print report bad tab
guest
You may want to rate the tab now too:
select rating
Wanna post a correction for this tab? Suggest correction