Oops, an error
Loading. Please wait.

Changuich A La Chichona Bass Tab

version 2
version 2

Whole song

222 views 3 this week
no commentswrite comment
1 2 3 4 5
3 more votes to show rating
add to favorites
launch autoscroll
font size
0
reset
guitar tuner
Autoscroll
slow
fast
+/-
esc
set tempo
stop
Help us to improve Ultimate-Guitar.com Take our survey!
×
Hola amigos molotoveros aca les dejo esta cancion muy facil de
tocarla,espero q les guste y si les queda alguna duda escriban
a vito_molotov@

Changuich a la chichona

Verso 1 (Miky) (Empieza a los 0:35)
G|---------------|
D|---------------|
A|---------------|    X4
E|-0---00----00--|

Coro 1(Nada)

Verso 2 (Randy)

G|---------------|
D|---------------|
A|---------------|    X4
E|-0----00---00--|


G|---------------|
D|---------------|
A|---------------|     x6
E|-0----00---003-|

Coro 2 (x2)
G|------------------------------|
D|------------------------------|
A|---------------2(x10)-5(x10)--|
E|-0(x10)-3(x10)----------------|

Verso 3 (Miky)

G|---------------|
D|---------------|
A|---------------|     x6
E|-0----00---003-|

Despues el bajo creo q utiliza un pedal pero no se de que,
y hace lo mismo hasta el coro

Coro 2 (x3)
G|------------------------------|
D|------------------------------|
A|---------------2(x10)-5(x10)--|
E|-0(x10)-3(x10)----------------|

G|---|
D|---|
A|---|
E|-0-|
Suggest correction
Give kudos to tab author, rate the tab!
1 2 3 4 5
comments
print report bad tab
guest
You may want to rate the tab now too:
select rating
Wanna post a correction for this tab? Suggest correction