Oops, an error
Loading. Please wait.

Ddt Bass Tab

193 views 1 this week
no commentswrite comment
1 2 3 4 5
3 more votes to show rating
add to favorites
launch autoscroll
font size
0
reset
guitar tuner
×
Best way to learn
"DDT"
Autoscroll
slow
fast
+/-
esc
set tempo
stop
Hey que tal compas aqui les dejamos esto
que es de molotov del eternamiente caon
es ddt ahi le corregi una parte pa que le chequen
haber si les gusta el tab ahi les va...

Intro...

G|-----------------------------------------------------------|
D|---------------------------------------2--------------2----|
A|----------2--------------2-----0-3-0-3---3----0-3-0-3---3--|
E|--0-3-0-3---3----0-3-0-3---3-------------------------------|

G|--------------------------------------------------------------|
D|---------------------------------------2--------------2-------|
A|----------2--------------2-----0-3-0-3---3----0-3-0-3---3-0---|
E|--0-3-0-3---3----0-3-0-3---3--------------------------------3-|

Verso...

Puede ser asi:                       o asi......
G|----------------------|        G|----------------------|
D|----------------------|        D|----------------------|
A|------------0----0----|   x2   A|----------------------| x2
E|--0----0--------------|        E|--0----0----5----5----|

y despues de eso sigue....(corregido)

G|------------------------------------|
D|------------------------------------|
A|---------------14--------------14---|
E|--0-3-0--12-15----0-3-0--12-15------|
                                               > x4
G|-------------------------------------------|
D|---------------14-------------------14-----|
A|--0-3-0--15-15----15---0-3-0--15-15----15--|
E|-------------------------------------------|

todo esto por 4

y luego el Coro igual que el intro...

G|-----------------------------------------------------------|
D|---------------------------------------2--------------2----|
A|----------2--------------2-----0-3-0-3---3----0-3-0-3---3--|
E|--0-3-0-3---3----0-3-0-3---3-------------------------------|

G|--------------------------------------------------------------|
D|---------------------------------------2--------------2-------|
A|----------2--------------2-----0-3-0-3---3----0-3-0-3---3-0---|
E|--0-3-0-3---3----0-3-0-3---3--------------------------------3-|


y Verso otra vez...

G|----------------------|
D|----------------------|
A|------------0----0----|   x2
E|--0----0--------------|

G|------------------------------------|
D|------------------------------------|
A|---------------14--------------14---|
E|--0-3-0--12-15----0-3-0--12-15------|
                                               > x4
G|-------------------------------------------|
D|---------------14-------------------14-----|
A|--0-3-0--15-15----15---0-3-0--15-15----15--|
E|-------------------------------------------|

todo esto por 4

y Coro otra vez...!!!

G|-----------------------------------------------------------|
D|---------------------------------------2--------------2----|
A|----------2--------------2-----0-3-0-3---3----0-3-0-3---3--|
E|--0-3-0-3---3----0-3-0-3---3-------------------------------|

G|--------------------------------------------------------------|
D|---------------------------------------2--------------2-------|
A|----------2--------------2-----0-3-0-3---3----0-3-0-3---3-0---|
E|--0-3-0-3---3----0-3-0-3---3--------------------------------3-|


y esta parte es la del solo...
(si lo oyen en vivo lo tocan mas o menos asi)

G|--------------------------------------------------------------------|
D|-------------------------------------------2---------------2--------| x2
A|----------2---------------2--------0-3-0-3---3-0-3-0-3-0-3---3-0-3--|
E|--0-3-0-3---3-0-3-0-3-0-3---3-0-3-----------------------------------|

Y parte final...

G|-----------------------------------------------------------|
D|---------------------------------------2--------------2----| x3
A|----------2--------------2-----0-3-0-3---3----0-3-0-3---3--|
E|--0-3-0-3---3----0-3-0-3---3-------------------------------|

G|--------------------------------------------------------------|
D|---------------------------------------2--------------2-------|
A|----------2--------------2-----0-3-0-3---3----0-3-0-3---3-0---|
E|--0-3-0-3---3----0-3-0-3---3--------------------------------3-|

G|--------------------|
D|--2-----------------|
A|----3-0-------------|   x3
E|--------3-----------|

Se acaba asi...

G|-----|
D|-----|
A|-----|
E|--0--|

es todo compas haber si les cae sino ps nos dicen...

ora!!!
Suggest correction
Give kudos to tab author, rate the tab!
1 2 3 4 5
comments
print report bad tab
guest
You may want to rate the tab now too:
select rating
Wanna post a correction for this tab? Suggest correction