Oops, an error
Loading. Please wait.

E Charles White Tab

76 views 6 this week
no commentswrite comment
1 2 3 4 5
3 more votes to show rating
add to favorites
launch autoscroll
font size
0
reset
how to read this tab
guitar tuner
×
Best way to learn
"E Charles White"
Autoscroll
slow
fast
+/-
esc
set tempo
stop
Intro/verso							
e-|------------------------------------------|
B-|*----0-----------3-----------6-----------*|
G-|-----0-----------4-----------7--7-7-------|
D-|---2-2---------5-5---------8-8--8-8-------|
A-|*--2-----------5-----------8----8-8------*|
E-|---0---------3-3-----------6-6--6-6-------|
					   x8

coro
e-|------------------------------------------|
B-|*-----------------------------------------|
G-|--3-3--x-x-x-x--7-7-x-x-x-x---------------|
D-|--3-3--x-x-x-x--7-7-x-x-x-x--2-2----------|
A-|*-1-1--x-x-x-x--5-5-x-x-x-x--2-2----------|
E-|--------------------x-x-x-x--0-0----------|

e-|------------------------------------------|
B-|-----------------------------------------*|
G-|------------------------------------------|
D-|------------------------------------------|
A-|--2-2-2-3-3-3-4-4-4----------------------*|
E-|------------------------------------------|
				 	   x3


e-|------------------------------------------|
B-|------------------------------------------|
G-|--3-3-x-x-x-x--7-7-x----------------------|
D-|--3-3-x-x-x-x--7-7-x--2-------------------|
A-|--1-1-x-x-x-x--5-5-x--2-------------------|
E-|-------------------x--0-------------------|


Verso 2
e-|------------------------------------------|
B-|*----------------------------------------*|
G-|------------------------------------------|
D-|------------------------------------------|
A-|*----------------------------------------*|
E-|--0-0--3--5--6-5--------------------------|
					   x9
Coro

Verso 2

Coro

puente
e-|------------------------------------------|
B-|*----------------------------------------*|
G-|------------------------------------------|
D-|--5---2-2-2-2-----------------------------|
A-|*-5---2-2-2-2----------------------------*|
E-|--3---0-0-0-0-----------------------------|
					    X8

Verso tres
e-|------------------------------------------|
B-|------------------------------------------|
G-|--nada, solo acoplar un poco la viola-----|
D-|------------------------------------------|
A-|------------------------------------------|
E-|------------------------------------------|

Coro

Puente x6

Puente b
E |------------------------------------------|
B |*----------------------------------------*|
G |------------------------------------------|
D |--5/6b---2-2-2-2--------------------------|
A |*-5/6b---2-2-2-2-------------------------*|
E |--3/4b---0-0-0-0--------------------------|
					    X3


E |-------------|
B |-------------|
G |-------------|
D |--2----------|
A |--2----------|
E |--0----------|
Suggest correction
Give kudos to tab author, rate the tab!
1 2 3 4 5
comments
print report bad tab
guest
You may want to rate the tab now too:
select rating
Wanna post a correction for this tab? Suggest correction