Oops, an error
Loading. Please wait.

El Carnal De Las Estrellas Bass

by Molotov
185 views 3 this week
no commentswrite comment
1 2 3 4 5
3 more votes to show rating
add to favorites
×
Save as Personal and add changes to this tab that will be seen only by you. Learn more ›
×
You can save this tab as Personal to edit and correct it or add notes. All changes will be seen only by you. Learn more »
save as personal
new!
launch autoscroll
font size
0
reset
guitar tuner
Autoscroll
slow
fast
+/-
esc
set tempo
stop
Intro
G|------------|------------------|
D|------------|------------------|
A|----5-----7-|----5--5-----7--7-|
E|-5-6---5-6--|-5-6--5---5-6--7--|
 | DOS  Veces |    DOS   Veces   |

Verso 1
G|------------|------------|--------------------------|
D|------------|------------|--------------------------|
A|----5-----7-|-5--5-7---7-|----5--5-----7--7/12\7/12-|
E|-5-6---5-6--|--5--5-5-7--|-5-6--5---5-6--7----------|
 | DOS  Veces | DOS  Veces |      DOS     Veces       |

Coro ('Este carnal, de las estrellas...')
G|------------|
D|------------|
A|-5--5-7---7-|
E|--5--5-5-7--|

Verso 2
G|------------|x3
D|------------|
A|-5--5-7---7-|
E|--5--5-5-7--|

Coro
G|------------|x2
D|------------|
A|-5--5-7---7-|
E|--5--5-5-7--|

Verso 3
G|--------------------------|------------|
D|--------------------------|------------|
A|----5--5-----7--7/12\7/12-|-5--5-7---7-|
E|-5-6--5---5-6--7----------|--5--5-5-7--|
 |       TRES     Veces     |   4 Veces  |

Coro
G|------------|x4
D|------------|
A|-5--5-7---7-|
E|--5--5-5-7--|

 -Verso sin Bajo-

Coro (Hasta el Final)
G|------------|
D|------------| 16veces + ó -
A|-5--5-7---7-|
E|--5--5-5-7--|

Escuchá la canción para saber el ritmo
Suggest correction
Give kudos to tab author, rate the tab!
1 2 3 4 5
comments
print report bad tab
guest
Wanna post a correction for this tab? Suggest correction