Oops, an error
Loading. Please wait.

El Mundo Se Va A Acabar Tab

by Molotov
173 views 9 this week
no commentswrite comment
1 2 3 4 5
3 more votes to show rating
add to favorites
×
Save as Personal and add changes to this tab that will be seen only by you. Learn more ›
×
You can save this tab as Personal to edit and correct it or add notes. All changes will be seen only by you. Learn more »
save as personal
new!
launch autoscroll
font size
0
reset
how to read this tab
guitar tuner
Autoscroll
slow
fast
+/-
esc
set tempo
stop
Pues simplemente escuchen la cancion para ubicarse ahi estan las partes

Intro:

1ªGuitarra
E |--------------------------------| 
B |--------------------------------|
G |-------------------2-4-5-4-2-0--|
D |------7-------------------------|
A |-7--7--------2-0-0--------------|
E |-5-------0-3--------------------|

2ª Guitarra
E |-------------------5-7-8-7-5-3--| 
B |--------------------------------|
G |--------------------------------|
D |--------------------------------|
A |--------------------------------|
E |--------------------------------|


Parte del medio:
1ª Guitarra
E |-------------------------------| 
B |-------------------------------|
G |-----------------2-4h5--4------|
D |----------------3--------------|
A |-------------------------------|
E |-0-5--7-8-8-7-5----------------|

2ª Guitarra
E |-----------------5-7h8--7-------| 
B |--------------------------------|
G |--------------------------------|
D |--------------------------------|
A |--------------------------------|
E |--------------------------------|

1ª Guitarra
E |--------------------------------| 
B |--------------------------------|
G |---------------------5-7h8-7----|
D |--------------------5-----------|
A |--------------------------------|
E |-3-8--10-11-11-10-8-------------|

2ª Guitarra
E |---------------------8-10h11-10-| 
B |--------------------------------|
G |--------------------------------|
D |--------------------------------|
A |--------------------------------|
E |--------------------------------|


Coro y Final:
2ª Guitarra
E |----0-3~--1-0-5-1---------1-0-----| 
B |------------------3~--1-0-----3-1-|
G |-0-2------------------------------|
D |----------------------------------|
A |----------------------------------|
E |----------------------------------|
Suggest correction
Give kudos to tab author, rate the tab!
1 2 3 4 5
comments
print report bad tab
guest
Wanna post a correction for this tab? Suggest correction