Oops, an error
Loading. Please wait.

El Mundo Tab

version 2
version 2

Whole song

  • Includes the actual guitar part for the chorus instead of just chords.
25 views 1 this week
no commentswrite comment
1 2 3 4 5
3 more votes to show rating
add to favorites
launch autoscroll
font size
0
reset
how to read this tab
guitar tuner
×
Best way to learn
"El Mundo"
Autoscroll
slow
fast
+/-
esc
set tempo
stop
Author
Difficulty
About this tab version
Includes the actual guitar part for the chorus instead of just chords. Was this info helpful? Yes No
[Riff principal]

Se repite el riff hasta el coro

e|--------------------------------------------|
B|--------------------------0-0h1-0-----------|
G|---------2-------------2-----------2-0------|
D|------2----------------2--------------------|
A|---0--0---------2-0-0-----------------------|
E|------------0-3-----------------------------| x8

[Coro]

"El mundo se va a acabar..."

     C               Dm                G      C 
e|-----------------------5------------------------------|
B|--------------8L---6L-----6---------------------------|
G|-----------9-----------------7L-------------9h10-9L---|
D|-------10----------------------(7)L--7/9~-------------|
A|---10-------------------------------------------------|
E|------------------------------------------------------|
   
     C               Dm                G      C
e|-----------------------5-----------------------------------|
B|--------------8L---6L-----6--------------------------------|
G|-----------9-----------------7L-------------9h10-9--7--5L--|
D|-------10----------------------(7)L--7/9L------------------|
A|---10------------------------------------------------------|
E|-----------------------------------------------------------|


[Verso 2]

e|--------------------------------------------|
B|--------------------------0-0h1-0-----------|
G|---------2-------------2-----------2-0------|
D|------2----------------2--------------------|
A|---0--0---------2-0-0-----------------------|
E|------------0-3-----------------------------| x6


[Coro 2]

     C               Dm                G      C 
e|-----------------------5------------------------------|
B|--------------8L---6L-----6---------------------------|
G|-----------9-----------------7L-------------9h10-9L---|
D|-------10----------------------(7)L--7/9~-------------|
A|---10-------------------------------------------------|
E|------------------------------------------------------|
   
     C               Dm                G      C
e|-----------------------5-----------------------------------|
B|--------------8L---6L-----6--------------------------------|
G|-----------9-----------------7L-------------9h10-9--7--5L--|
D|-------10----------------------(7)L--7/9L------------------|
A|---10------------------------------------------------------|
E|-----------------------------------------------------------|

[Puente]

e|----------------------------------------|  
B|----------------------------------------|
G|---------------------------------3/2~---|
D|------------------------------3---------|
A|----0-0-0--2--3--3--2--0-----3----------|
E|-0-----------------------1--1-----------|

e|----------------------------------------|
B|------------------------------0---------|
G|-----------------------------0----5/4~--|
D|----------------------------0-----------|
A|----3-3-3--5--6--6--5--3----------------|
E|-2-----------------------3--------------|

x3

[Verso 3]

e|--------------------------------------------|
B|--------------------------0-0h1-0-----------|
G|---------2-------------2-----------2-0------|
D|------2----------------2--------------------|
A|---0--0---------2-0-0-----------------------|
E|------------0-3-----------------------------| x4

[Coro 3 y Outro]

     C               Dm                G      C 
e|-----------------------5------------------------------|
B|--------------8L---6L-----6---------------------------|
G|-----------9-----------------7L-------------9h10-9L---|
D|-------10----------------------(7)L--7/9~-------------|
A|---10-------------------------------------------------|
E|------------------------------------------------------|
   
     C               Dm                G      C
e|-----------------------5-----------------------------------||
B|--------------8L---6L-----6--------------------------------||
G|-----------9-----------------7L-------------9h10-9--7--5L--||
D|-------10----------------------(7)L--7/9L------------------||
A|---10------------------------------------------------------||
E|-----------------------------------------------------------||

x2



************************************

|/    Slide
|(n)  Nota fantasma
|L    Se deja sonar
|h    Hammer-on/Pull-off
|~    Vibrato

************************************
Suggest correction
Give kudos to tab author, rate the tab!
1 2 3 4 5
comments
print report bad tab
guest
You may want to rate the tab now too:
select rating
Wanna post a correction for this tab? Suggest correction