Oops, an error
Loading. Please wait.

Guacala Q Rico Bass Tab

256 views 3 this week
no commentswrite comment
1 2 3 4 5
3 more votes to show rating
add to favorites
launch autoscroll
font size
0
reset
guitar tuner
Autoscroll
slow
fast
+/-
esc
set tempo
stop
Help us to improve Ultimate-Guitar.com Take our survey!
×
hey aqui dejo esta rola

intro...
no olviden los tiempos
cuenten asi: un y dos y tres y cuatri...

G|--------------------------------------
D|--------------------------------------
A|--55555555-33333333-------------------
E|--------------------5555555555555555--

G|----------------------------------------
D|----------------------------------------
A|--5555-3333-0000------------------------
E|-----------------3333-5555555555555555--

verso...

G|--------------------------------
D|--------------------------------
A|---------3/1-------------5-3---- x6
E|--5-5--3-------5-5-3/5-5-----3--

y el coro...

G|--------------------------------------
D|--------------------------------------
A|--55555555-33333333-------------------
E|--------------------5555555555555555--

G|----------------------------------------
D|----------------------------------------
A|--5555-3333-0000------------------------
E|-----------------3333-5555555555555555--

verso nuevamiente...

G|--------------------------------
D|--------------------------------
A|---------3/1-------------5-3---- x7
E|--5-5--3-------5-5-3/5-5-----3--

y el ultimio es...

G|-----------------------
D|-----------------------
A|---------3/1-----------
E|--5-5--3-----5-5-5-5---

y coro...

G|--------------------------------------
D|--------------------------------------
A|--55555555-33333333-------------------
E|--------------------5555555555555555--

G|----------------------------------------
D|----------------------------------------
A|--5555-3333-0000------------------------ x2
E|-----------------3333-5555555555555555--

y el solo va asi...
despues del platillazo se toca asi!!!

G|--------------------------------------
D|--------------------------------------
A|--55555555-33333333-------------------
E|--------------------5555555555555555--

G|--------------------------------------
D|--------------------------------------
A|--55555555-33333333-------------------
E|--------------------555555555555------

y coro otra vez...

G|--------------------------------------
D|--------------------------------------
A|--55555555-33333333-------------------
E|--------------------5555555555555555--
                                            x2
G|----------------------------------------
D|----------------------------------------
A|--5555-3333-0000------------------------
E|-----------------3333-5555555555555555--

luego va la prte en la que dice puro guacala
q rico y va asi...

G|----------------------------------------
D|----------------------------------------
A|--5555-3333-0000------------------------ x4
E|-----------------3333-5555555555555555--

y al final...

G|------------
D|------------
A|--555555----
E|------------

weno eso fue todo ojala y les agrade
no olviden los tiempos son importantes

y arriba Pancho - Lira


ora!!!
Suggest correction
Give kudos to tab author, rate the tab!
1 2 3 4 5
comments
print report bad tab
guest
You may want to rate the tab now too:
select rating
Wanna post a correction for this tab? Suggest correction