Oops, an error
Loading. Please wait.

Hasta La Basura Se Separa Bass

by Molotov
261 views 6 this week
no commentswrite comment
1 2 3 4 5
3 more votes to show rating
add to favorites
launch autoscroll
font size
0
reset
guitar tuner
×
Best way to learn
"Hasta La Basura Se Separa"
Autoscroll
slow
fast
+/-
esc
set tempo
stop
bueno pus ahi les dejo esta rolita
lo uniko que tienen que hacer es afinar su bajo en bemol
y ya sta
g|----------------|----------|
d|----------------|          |
a|----------------|(x3)      |
e|-0-0-0-0-0-0-4-5|          |
                             |(x5)
g|-----------------|         |
d|-----------------|         |
a|-----------------|         |
e|-0-0-4-5-0-0-4-5-|---------|

g|-----------------------------|
d|-----------------------------|
a|-6(x15)-8(x15)-9(x15)-11(x15)|
e|-----------------------------|

g|----------------|----------|
d-----------------|          |
a|----------------|(x3)      |
e|-0-0-0-0-0-0-4-5|          |
                             |(x4)
g|-----------------|         |
d|-----------------|         |
a|-----------------|         |
e|-0-0-4-5-0-0-4-5-|---------|

g|---------------------------------------|
d|---------------------------------------|
a|--5-6(x15)-7-8(x15)-8-9(x15)-10-11(x15)|(x2)
e|-0--------0--------0--------0----------|

g|----------------|                     g|--------|
d|----------------|                     d|--------|
a|----------------|(x un chingo) luego  a|--------|
e|-0-0-0-0-0-0-0-0|                     e|-0-4-5-0|

g|----------------|----------|
d-----------------|          |
a|----------------|(x3)      |
e|-0-0-0-0-0-0-4-5|          |
                             |(x4)
g|-----------------|         |
d|-----------------|         |
a|-----------------|         |
e|-0-0-4-5-0-0-4-5-|---------|

g|-----------------------------|
d|-----------------------------|
a|-6(x15)-8(x15)-9(x15)-11(x15)|
e|-----------------------------|

g|---------------------------------------|
d|---------------------------------------|
a|--5-6(x15)-7-8(x15)-8-9(x15)-10-11(x15)|
e|-0--------0--------0--------0----------|

g|----------------|                     g|--------|
d|----------------|                     d|--------|
a|----------------|(x un chingo) luego  a|--------|
e|-0-0-0-0-0-0-0-0|                     e|-0-4-5-0|

g|----------------|----------|
d-----------------|          |
a|----------------|(x3)      |
e|-0-0-0-0-0-0-4-5|          |
                             |(x2)
g|-----------------|         |
d|-----------------|         |
a|-----------------|         |
e|-0-0-4-5-0-0-4-5-|---------|

g|---------------------------------------|
d|---------------------------------------|
a|--5-6(x15)-7-8(x15)-8-9(x15)-10-11(x15)|(x2)
e|-0--------0--------0--------0----------|

g|----------------|----------|
d-----------------|          |
a|----------------|(x3)      |
e|-0-0-0-0-0-0-4-5|          |
                             |(x4)
g|-----------------|         |
d|-----------------|         |
a|-----------------|         |
e|-0-0-4-5-0-0-4-5-|---------|

g|---------------------------------------|
d|---------------------------------------|
a|--5-6(x15)-7-8(x15)-8-9(x15)-10-11(x15)|(x2)
e|-0--------0--------0--------0----------|

g|----------------|                     g|--------|
d|----------------|                     d|--------|
a|----------------|(x un chingo) luego  a|--------|
e|-0-0-0-0-0-0-0-0|                     e|-0-4-5-0|

cualquier duda,felicitaciones,comentarios etc pos ahi stoy
mi correo:
Suggest correction
Give kudos to tab author, rate the tab!
1 2 3 4 5
comments
print report bad tab
guest
You may want to rate the tab now too:
select rating
Wanna post a correction for this tab? Suggest correction