Oops, an error
Loading. Please wait.

Here Comes The Mayo Bass Tab

87 views 3 this week
no commentswrite comment
1 2 3 4 5
3 more votes to show rating
add to favorites
launch autoscroll
font size
0
reset
guitar tuner
×
Best way to learn
"Here Comes The Mayo"
Autoscroll
slow
fast
+/-
esc
set tempo
stop
Ésta rola esta muy chida, y no hay casi guitarra, 
el bajo se oye muy bien, échenle ganas

********************INTRO************************

En el intro solo se oyen las voces y la bateria, 
puedes acompañarlo si quieres con este arreglo


G--------------------------------------------
D--------------------------------------------
A--------------------------------------------
E-0-----------0----------0-------------0---X4

*********************VERSO************************

Con sandwitch Sandwitch de cuates, mal movimiento
y te llueven mecates, pacto, pacto de sangre, parcha
G-------------------------------------------------
D-------------------------------------------------
A----------5-6-------------5-6------------5-6-----
E-0--0-7-7------0-0--0-7-7-----0-0--0-7-7-----0---

a su novia, tb a su madre, se dice q son los 
charolastras ladillas, gandallas, manchados y lacras
G-------------------------------------------------
D-------------------------------------------------
A-------5-6------------5-6------------5-6---------
E-0-7-7-----0----0-7-7-----0----0-7-7-----0-------

las damas chidas la banda pa´arriba saca panchita, 
lechera chichita en su pomo guaromo me duele la 

G-------------------------------------------------
D-------------------------------------------------
A-------5-6------------5-6------------------------
E-0-7-7-----0-0--0-7-7-----5-5--5-0-0-3-4-5--5-0-0

chonteca al rato me agüito me da bajo riseca asi es 
la pandilla, la banda, ladilla, las nachas, las 
tachas la pura carrilla el reven el ruido los pelos                                   
G-------------------------------------------------
D-------------------------------------------------
A-------------------------------------------5-6---
E-3-4-5--5-0-0-3-4-5--5-0-0-3-4-5--0--0-7-7-----0-

del Güido el carro pesado del beso salado usted va 
a Queretaro, se va a caballo.. here comes the mayo
G-------------------------------------------------
D-------------------------------------------------
A-------5-6------------5-6------------------------
E-0-7-7-----0-0--0-7-7-----0----------------------


*********************CORO*************************

Here comes the mayo  shick my macana mama shick 
G-------------------------------------------------
D-------------------------------------------------
A-----2*5-5-2---------------------2*5-5-2---------
E-0-0---------5-0-0--0-0-3-5--0-0---------5-0-0---

shick my macana  Here comes the mayo  shick my 
G-------------------------------------------------
D-------------------------------------------------
A--------------2*5-5-2---------------------2*5-5-2
E-0-0-3-5--0-0---------5-0-0--0-0-3-5--0-0--------

macana mama shick shick my macana
G-------------------------------------------------
D-------------------------------------------------
A-------------------------------------------------
E-5-0-0-------------------------------------------


*********************VERSO************************

******************Ingles**************************
G-------------------------------------------------
D-------------------------------------------------
A----------5-6-------------5-6------------5-6-----
E-0--0-7-7------0-0--0-7-7-----0-0--0-7-7-----0---

******************Ingles**************************
G-------------------------------------------------
D-------------------------------------------------
A-------5-6------------5-6------------5-6---------
E-0-7-7-----0----0-7-7-----0----0-7-7-----0-------

              se pone se pone hasta el gorro le gana 
la risa después de una hora le viene la heriza le 
G-------------------------------------------------
D-------------------------------------------------
A-------5-6------------5-6------------------------
E-0-7-7-----0-0--0-7-7-----5-5--5-0-0-3-4-5--5-0-0

hablo al tocallo se saca otro gallo le sube y le 
Baja se pone morado me fuí para afuera para echar 
G-------------------------------------------------
D-------------------------------------------------
A-------------------------------------------5-6---
E-3-4-5--5-0-0-3-4-5--5-0-0-3-4-5--0--0-7-7-----0-

bacilón saltando a mitad el nervio en el balcón entre 
becho abacho y apapacho gacho si ven a la Diana le 
mando un A-Bracho
G-------------------------------------------------
D-------------------------------------------------
A-------5-6------------5-6------------------------
E-0-7-7-----0-0--0-7-7-----0-0--------------------


***********************CORO***********************

Here comes the mayo  shick my macana mama shick 
G-------------------------------------------------
D-------------------------------------------------
A-----2*5-5-2---------------------2*5-5-2---------
E-0-0---------5-0-0--0-0-3-5--0-0---------5-0-0---

shick my macana  Here comes the mayo  shick my 
G-------------------------------------------------
D-------------------------------------------------
A--------------2*5-5-2---------------------2*5-5-2
E-0-0-3-5--0-0---------5-0-0--0-0-3-5--0-0--------

macana mama shick shick my macana
G-------------------------------------------------
D-------------------------------------------------
A-------------------------------------------------
E-5-0-0-------------------------------------------


*******************PUENTE************************
G---------------------------------------
D---------------------------------------
A----------------5-6----------------5-6-
E-0-0-0-0-0-0-7-------0-0-0-0-0-0-7-----

G---------------------------------------
D---------------------------------------
A----------------5-6----------------5-6-
E-0-0-0-0-0-0-7-------0-0-0-0-0-0-7-----

si se me sale un gallo un gallo yeaaaahhh
G----------------------------------------------
D----------------------------------------------
A----------------------------------------------
E-0*3-0*3-0*3-0*3-0*5-0*3*5--0-0-0-0-0---0*3*5-

si se me sale un gallo un gallo yeaaaahhh
G----------------------------------------------
D----------------------------------------------
A----------------------------------------------
E-0-0-0-0-0--0*3*5---0-0-0-0-0--0*3*5----------


*********************VERSO************************

tu culo tu culo haya culo a la banda precoz q se 
viene temprano mi amigo mi cuate de sangre mi hermano
G-------------------------------------------------
D-------------------------------------------------
A----------5-6-------------5-6------------5-6-----
E-0--0-7-7------0-0--0-7-7-----0-0--0-7-7-----0---

de tanto chaco tiene pelo en la mano tantas horchatas 
pachecas ya chole siempre te toca mover el atole 
G-------------------------------------------------
D-------------------------------------------------
A-------5-6------------5-6------------5-6---------
E-0-7-7-----0----0-7-7-----0----0-7-7-----0-------

fumando mota la vida se agota
he was living, living on loca ****Ingles**********
G-------------------------------------------------
D-------------------------------------------------
A-------5-6------------5-6------------------------
E-0-7-7-----0-0--0-7-7-----5-5--5-0-0-3-4-5--5-0-0

************inglés********************************
G-------------------------------------------------
D-------------------------------------------------
A-------------------------------------------5-6---
E-3-4-5--5-0-0-3-4-5--5-0-0-3-4-5--0--0-7-7-----0-

*************inglés*******************************
G-------------------------------------------------
D-------------------------------------------------
A-------5-6------------5-6------------------------
E-0-7-7-----0-0--0-7-7-----0-0--------------------


**********************CORO************************

Here comes the mayo  shick my macana mama shick 
G-------------------------------------------------
D-------------------------------------------------
A-----2*5-5-2---------------------2*5-5-2---------
E-0-0---------5-0-0--0-0-3-5--0-0---------5-0-0---

shick my macana  Here comes the mayo  shick my 
G-------------------------------------------------
D-------------------------------------------------
A--------------2*5-5-2---------------------2*5-5-2
E-0-0-3-5--0-0---------5-0-0--0-0-3-5--0-0--------

macana mama shick shick my macana
G-------------------------------------------------
D-------------------------------------------------
A-------------------------------------------------
E-5-0-0-------------------------------------------


***************Puente con DJ en inglés************


*********************CORO*************************

Here comes the mayo  shick my macana mama shick 
G-------------------------------------------------
D-------------------------------------------------
A-----2*5-5-2---------------------2*5-5-2---------
E-0-0---------5-0-0--0-0-3-5--0-0---------5-0-0---

shick my macana  Here comes the mayo  shick my 
G-------------------------------------------------
D-------------------------------------------------
A--------------2*5-5-2---------------------2*5-5-2
E-0-0-3-5--0-0---------5-0-0--0-0-3-5--0-0--------

macana mama shick, shick my macana  Here comes the 
G-------------------------------------------------
D-------------------------------------------------
A---------------------2*5-5-2---------------------
E-5-0-0--0-0-3-5--0-0---------5-0-0--0-0-3-5--0-0-

mayo  shick my macana mama shick, shick my macana  
G-------------------------------------------------
D-------------------------------------------------
A-2*5-5-2---------------------2*5-5-2-------------
E---------5-0-0--0-0-3-5--0-0---------5-0-0--0-0-3

Here comes the mayo  shick my macana mama shick, 
G-------------------------------------------------
D-------------------------------------------------
A--------2*5-5-2----------------------------------
E-5--0-0---------5-0-0--0-0-3-5--0~---------------

shick my macana   eeeeeeeeeehhhhhhhhhhh

Nota: las partes en inglés no me las se, si alguien 
se las sabe, mandanmelas por favor, las letras estan 
más o menos ubicadas en donde se toca, algunas veces 
no es exacto, chequenle con la grabación

Bueno, eso es todo, ya saben, comentarios, dudas,
sugerencias o lo q sea a mi mail jcd_007@
y vean la pelicula, esta buena
Suggest correction
Give kudos to tab author, rate the tab!
1 2 3 4 5
comments
print report bad tab
guest
You may want to rate the tab now too:
select rating
Wanna post a correction for this tab? Suggest correction