Oops, an error
Loading. Please wait.

Hit Me (Gimme Tha Power Ii) Bass

by Molotov
315 views 3 this week
no commentswrite comment
1 2 3 4 5
3 more votes to show rating
add to favorites
×
Save as Personal and add changes to this tab that will be seen only by you. Learn more ›
×
You can save this tab as Personal to edit and correct it or add notes. All changes will be seen only by you. Learn more »
save as personal
new!
launch autoscroll
font size
0
reset
guitar tuner
Autoscroll
slow
fast
+/-
esc
set tempo
stop
   Hit me


                                      Molotov
Bass
sophisticated_ego@


             Q    E  E  S S S S S  S E
G||-------|-----------------------------|
D||-------|-------------7---5---7-L-L--|
A||-------|--5----L--5------------------|
E||-------|-----------------------------|


  Q    Q    Q    Q
----------------------|
----------------------|
--0----L----0---------|
-----------------1----|


  Q    E  E  S S S S S S E
----------------------------|
-------------7---5---7-L-L--|
--5----L--5-----------------|
----------------------------|


  E  S S S S Q.      E  E
---------------------------|
-----7---5---7------10--7--|
---------------------------|
---------------------------|


  Q    E  E  S S S S S  S E
-----------------------------|
-------------7---5---7-L-L--|
--5----L--5------------------|
-----------------------------|


  Q    E  E  S S S S S  S E
-----------------------------|
-----------------------------|
--0----L--0------------------|
-------------5---3---5/-L-L--|


  Q    E  E  S S S S S  S E
-----------------------------|
-------------7---5---7-L-L--|
--5----L--5------------------|
-----------------------------|


  W
-------------------|-------------------|
-------------------|-------------------|
--0----------------|-------------------|
-------------------|-------------------|


-------------------|-------------------|
-------------------|-------------------|
-------------------|-------------------|
-------------------|-------------------|


-------------------|-------------------|
-------------------|-------------------|
-------------------|-------------------|
-------------------|-------------------|


-------------------|-------------------|
-------------------|-------------------|
-------------------|-------------------|
-------------------|-------------------|


-------------------|-------------------|
-------------------|-------------------|
-------------------|-------------------|
-------------------|-------------------|


-------------------|-------------------|
-------------------|-------------------|
-------------------|-------------------|
-------------------|-------------------|


-------------------|-------------------|
-------------------|-------------------|
-------------------|-------------------|
-------------------|-------------------|


-------------------|-------------------|
-------------------|-------------------|
-------------------|-------------------|
-------------------|-------------------|


-------------------|
-------------------|
-------------------|
-------------------|


  Q    E  E  S S S S S  S E
-----------------------------|
-------------7---5---7-L-L--|
--5----L--5------------------|
-----------------------------|


  Q    Q    Q    Q
----------------------|
----------------------|
--0----L----0---------|
-----------------1----|


  Q    E  E  S S S S S  S E
-----------------------------|
-------------7---5---7-L-L--|
--5----L--5------------------|
-----------------------------|


  E  S S S S Q.      E  E
---------------------------|
-----7---5---7------10--7--|
---------------------------|
---------------------------|


  Q    E  E  S S S S S  S E
-----------------------------|
-------------7---5---7-L-L--|
--5----L--5------------------|
-----------------------------|


  Q    E  E  S S S S S  S E
-----------------------------|
-----------------------------|
--0----L--0------------------|
-------------5---3---5/-L-L--|


  Q    E  E  S S S S S  S E
-----------------------------|
-------------7---5---7-L-L--|
--5----L--5------------------|
-----------------------------|


  E  S S S S Q.      E  E
---------------------------|
-----7---5---7------10--7--|
---------------------------|
---------------------------|


  Q    E  E  E  Q.
-----------------------|
-------7--5------------|
-------------3--5------|
--5--------------------|


  Q    E  E  E  Q.
-----------------------|
-------7--5------------|
--5----------3--5------|
-----------------------|


  Q    E  E  E  Q.
-----------------------|
-------7--5------------|
-------------3--5------|
--5--------------------|


  Q    E  E  E  Q.
-----------------------|
-------7--5------------|
--5----------3--5------|
-----------------------|


  Q    E  E  E  Q.
-----------------------|
-------7--5------------|
-------------3--5------|
--5--------------------|


  Q    E  E  E  Q.
-----------------------|
-------7--5------------|
--5----------3--5------|
-----------------------|


  Q    E  E  E  Q.
-----------------------|
-------7--5------------|
-------------3--5------|
--5--------------------|


  Q    E  E  E  Q.
-----------------------|
-------7--5------------|
--5----------3--5------|
-----------------------|


  Q    E  E  E  Q.
-----------------------|
-------7--5------------|
-------------3--5------|
--5--------------------|


  Q    E  E  E  Q.
-----------------------|
-------7--5------------|
--5----------3--5------|
-----------------------|


  Q    E  E  E  Q.
-----------------------|
-------7--5------------|
-------------3--5------|
--5--------------------|


  Q    E  E  E  Q.
-----------------------|
-------7--5------------|
--5----------3--5------|
-----------------------|


  Q    E  E  E  Q.
-----------------------|
-------7--5------------|
-------------3--5------|
--5--------------------|


  Q    E  E  E  Q.
-----------------------|
-------7--5------------|
--5----------3--5------|
-----------------------|


  Q    E  E  E  Q.
-----------------------|
-------7--5------------|
-------------3--5------|
--5--------------------|


  Q    E  E  E  Q.
-----------------------|
-------7--5------------|
--5----------3--5------|
-----------------------|


  Q    E  E  S S S S S  S E
-----------------------------|
-------------7---5---7-L-L--|
--5----L--5------------------|
-----------------------------|


  Q    Q    Q    Q
----------------------|
----------------------|
--0----L----0---------|
-----------------1----|


  Q    E  E  S S S S S S E
----------------------------|
-------------7---5---7-L-L--|
--5----L--5-----------------|
----------------------------|


  E  S S S S Q.      E  E
---------------------------|
-----7---5---7------10--7--|
---------------------------|
---------------------------|


  Q    E  E  S S S S S  S E
-----------------------------|
-------------7---5---7-L-L--|
--5----L--5------------------|
-----------------------------|


  Q    E  E  S S S S S  S E
-----------------------------|
-----------------------------|
--0----L--0------------------|
-------------5---3---5/-L-L--|


  Q    E  E  S S S S S  S E
-----------------------------|
-------------7---5---7-L-L--|
--5----L--5------------------|
-----------------------------|


  Q    E  E  S S S S S  S E
-----------------------------|
-----------------------------|
--0----L--0------------------|
-------------5---3---5/-L-L--|


  W                   W
-------------------|-------------------|
--0----------------|-------------------|
-------------------|--0----------------|
-------------------|-------------------|


  W                   W
-------------------|-------------------|
--0----------------|-------------------|
-------------------|--0----------------|
-------------------|-------------------|


-------------------|-------------------|
-------------------|-------------------|
-------------------|-------------------|
-------------------|-------------------|


-------------------|-------------------|
-------------------|-------------------|
-------------------|-------------------|
-------------------|-------------------|


-------------------|-------------------|
-------------------|-------------------|
-------------------|-------------------|
-------------------|-------------------|


-------------------|-------------------|
-------------------|-------------------|
-------------------|-------------------|
-------------------|-------------------|


-------------------|
-------------------|
-------------------|
-------------------|


  E  E  E  E  E  E  E  E
--------------------------|
--------------------------|
--0--0--0--0--0--0--0--0--|
--------------------------|


  E  E  E  E  E  E  E  E
--------------------------|
--------------------------|
--0--0--0--0--0--0--0--0--|
--------------------------|


  E  E  E  E  E  E  E  E
--------------------------|
--------------------------|
--0--0--0--0--0--0--0--0--|
--------------------------|


  E  E  E  E  E  E  E  E
--------------------------|
--------------------------|
--0--0--0--0--0--0--0--0--|
--------------------------|


  E  E  E  E  E  E  E  E
--------------------------|
--------------------------|
--0--0--0--0--0--0--0--0--|
--------------------------|


  E  E  E  E  E  E  E  E
--------------------------|
--------------------------|
--0--0--0--0--0--0--0--0--|
--------------------------|


  E  E  E  E  E  E  E  E
--------------------------|
--------------------------|
--0--0--0--0--0--0--0--0--|
--------------------------|


  Q    E  E  S S S S S  S E
-----------------------------|
-------------7---5---7-L-L--|
--5----L--5------------------|
-----------------------------|


  Q    Q    Q    Q
----------------------|
----------------------|
--0----L----0---------|
-----------------1----|


  Q    E  E  S S S S S S E
----------------------------|
-------------7---5---7-L-L--|
--5----L--5-----------------|
----------------------------|


  E  S S S S Q.      E  E
---------------------------|
-----7---5---7------10--7--|
---------------------------|
---------------------------|


  Q    E  E  S S S S S  S E
-----------------------------|
-------------7---5---7-L-L--|
--5----L--5------------------|
-----------------------------|


  Q    E  E  S S S S S  S E
-----------------------------|
-----------------------------|
--0----L--0------------------|
-------------5---3---5/-L-L--|


  Q    E  E  S S S S S  S E
-----------------------------|
-------------7---5---7-L-L--|
--5----L--5------------------|
-----------------------------|


  E  S S S S Q.      E  E
---------------------------|
-----7---5---7------10--7--|
---------------------------|
---------------------------|


  Q    E  E  S S S S S  S E
-----------------------------|
-------------7---5---7-L-L--|
--5----L--5------------------|
-----------------------------|


  Q    Q    Q    Q
----------------------|
----------------------|
--0----L----0---------|
-----------------1----|


  Q    E  E  S S S S S S E
----------------------------|
-------------7---5---7-L-L--|
--5----L--5-----------------|
----------------------------|


  E  S S S S Q.      E  E
---------------------------|
-----7---5---7------10--7--|
---------------------------|
---------------------------|


  Q    E  E  S S S S S  S E
-----------------------------|
-------------7---5---7-L-L--|
--5----L--5------------------|
-----------------------------|


  Q    E  E  S S S S S  S E
-----------------------------|
-----------------------------|
--0----L--0------------------|
-------------5---3---5/-L-L--|


  Q    E  E  S S S S S  S E
-----------------------------|
-------------7---5---7-L-L--|
--5----L--5------------------|
-----------------------------|


  W                   W
-------------------|-------------------||
-------------------|-------------------||
--0----------------|--L----------------||
-------------------|-------------------||


Duration Legend
---------------
W - whole
H - half
Q - quarter
E - 8th
S - 16th
T - 32nd
X - 64th
. - note dotted
|-n-|  - n-tuplets


Tablature Legend
----------------
L - tied note
x - dead note
g - grace note
(n) - ghost note
> - accentuded note
NH - natural harmonic
AH - artificial harmonic
TH - tapped harmonic
SH - semi harmonic
PH - pitch harmonic
h - hammer on
p - pull off
b - bend
br - bendRelease
pb - preBend
pbr - preBendRelease
brb - bendReleaseBend
n/ - tremolo bar dip
n - tremolo bar dive
-/n - tremolo bar Release up
/n - tremolo bar inverted dip
/n - tremolo bar return
-n - tremolo bar Release down
S - shift slide
s - legato slide
/ -  slide into from below or out of upwards
 -  slide into from above or out of downwards
~ - vibrato
W - wide vibrato
tr - trill
TP - tremolo picking
T - tapping
S - slap
P - pop
< - fade in
^ - brush up
v - brush down
Suggest correction
Give kudos to tab author, rate the tab!
1 2 3 4 5
comments
print report bad tab
guest
Wanna post a correction for this tab? Suggest correction