Oops, an error
Loading. Please wait.

Huidos Needs No Education Chords

157 views 1 this week
no commentswrite comment
1 2 3 4 5
3 more votes to show rating
add to favorites
launch autoscroll
font size
0
reset
transpose
0
reset
display chords
guitar tuner
×
Best way to learn
"Huidos Needs No Education"
Autoscroll
slow
fast
+/-
esc
set tempo
stop
Los acordes son: C# G# D

C#: 1---------------    G#: 1----------------   D: 1--------------
    2---------------        2----------------      2--------------
    3----6----------        3----------------      3----7---------
    4----6----------        4----6-----------      4----7---------
    5----4----------        5----6-----------      5----5---------
    6---------------        6----4-----------      6--------------


Intro: C# G# el intro dermina con un D

El coro va así: 1--------------        1--------------
                2--------------        2--------------
                3--------------  x4    3--------------  x4
                4------6-------        4-------7------
                5---4----------        5----5---------
                6--------------        6--------------

En este verso solo se da un rasgeo hacia abajo

C#
El lunes es primer día de la semana
   D
no se me da la gana y no quiero ir a estudiar
        C#
no es cuento, ni invento, ni intento de evasivas
       D
hay maestras abusivas que me quieren violar


En esta parte se rasgea rapido hacia abajo


C#
Miguel Hidalgo, ni Emiliano Zapata
        D
no hay poder humano que me logre
             C#
sacar de mi cama
                           D
no podrán despojarme mi almohada
ni mi pijama.
C#                         D
Que binomio al cuadrado perfecto
                                 C#
ni que la chingada no sirven de nada
                              D
no hay un ángulo, obtuso ni recto
ni agudo, agudas mis guitarras.

CORO:

no nací para estudiar
di no a la universidad,
no quiero entrar a ese lugar jamás.
no me gusta trabajar,
yo nací para tocar,
mi vida va de bar en bar.


Al final de cada coro hay un arreglo que va así:

1----------------------------
2----------------------------
3----------------------------
4----------------------------
5---7---5---4----------------
6--------------7---5---4-----


intermedio: G#


Se repite el intro


En este verso se da solo un rasgeo hacia abajo


C#
El martes es el día subsiguiente
          D
no hay que forzar la mente
y no se puede estudiar
    C#
No soy un huevón ni bueno para nada
       D
soy cerebro de teflón y no se me pega nada


Aqui empieza la parte del rasgueo hacia abajo


C#
Monocotiledóneas ni que cotiledóneas
     D
la maestra pinche mona
                               C#
se pasó de inteligente y nos miente
                 D
absolutamiente, tome su exámen
y responda brevemente.
C#
Mar Muerto y Egeo, Río Nilo
               D
Río Pacheco, Río Tigris

Mar negro, Río Ebrio y me mareo
C#
pelota es sujeto y el verbo es predicado
      D
predicar es mi verbo
y mi sujeto las pelotas.

CORO:
no nací para estudiar
di no a la universidad,
no quiero entrar a ese lugar jamás.
no me gusta trabajar,
yo nací para tocar,
mi vida va de bar en bar.

Atención alumnos, un poco de Biología. Las plantas monocotiledoneas tienen un
solo
cotiledon que se encuentra en el pedon culito superior de talla y las plantas
nicotiledoneas tienen 2 cotiledones que para reproducirce 2
es mucho mejor que 1

CORO:
no nací para estudiar
di no a la universidad,
no quiero entrar a ese lugar jamás.
no me gusta trabajar,
yo nací para tocar,
mi vida va de bar en bar.


Escucha la canción para saber el ritmo
Suggest correction
Give kudos to tab author, rate the tab!
1 2 3 4 5
comments
print report bad tab
guest
You may want to rate the tab now too:
select rating
Wanna post a correction for this tab? Suggest correction