Oops, an error
Loading. Please wait.

I'm The One Bass Tab

44 views 1 this week
no commentswrite comment
1 2 3 4 5
3 more votes to show rating
add to favorites
launch autoscroll
font size
0
reset
guitar tuner
×
Best way to learn
"I'm The One"
Autoscroll
slow
fast
+/-
esc
set tempo
stop
hola ,bueno aca les dejos para todos los molochos esta cancion
q esta muy facil para tocar si tienen alguna duda escribanme a
vito_molotov@

INTRO

G-------------------------------------------------------------------
D-------------------------------------------------------------------
A-1/7-7-8-9-7-6-5-7-8-9-7-5-4-3-3/7-7-77----------5-6-7-7-77-7-5-4-3
E---------------------------------------5-6-7-7-77------------------

CORO

G-------------------------------------------------------------------
D-------------------------------------------------------------------
A-1/7-7-8-9-7-6-5-7-8-9-7-5-4-3-3/7-7-77----------5-6-7-7-77-7-5-4-3
E---------------------------------------5-6-7-7-77------------------
VERSO


G---------------------------------
D---------------------------------
A-7-77----------5-6-7-7-77-7-5-4-3
E-----5-6-7-7-77------------------

VIVA MEXICO CABRONES

Pergamino/bs as/argentina
Suggest correction
Give kudos to tab author, rate the tab!
1 2 3 4 5
comments
print report bad tab
guest
You may want to rate the tab now too:
select rating
Wanna post a correction for this tab? Suggest correction