Oops, an error
Loading. Please wait.

Karmara Bass

by Molotov
305 views 15 this week
no commentswrite comment
1 2 3 4 5
3 more votes to show rating
add to favorites
launch autoscroll
font size
0
reset
guitar tuner
×
Best way to learn
"Karmara"
Autoscroll
slow
fast
+/-
esc
set tempo
stop
Intro (Puede ser con Slap, pero con los dedos suena bien)
G|-----------------------------------------------|x6
D|-----------------------------------------------|
A|-55h4-5-4h7--5h4-5-4h7--5h4-5-4h7--5-44-55-6h7-|
E|-----------------------------------------------|

Verso
G|--------------------------------|x8
D|--------------------------------|
A|-5-4h5-4h5-4h5\3/5--4h5-4h5-7-6-|
E|--------------------------------|

Puente
G|-----------------------------------------------|x2
D|-----------------------------------------------|
A|-55h4-5-4h7--5h4-5-4h7--5h4-5-4h7--5-44-55-6h7-|
E|-----------------------------------------------|

Coro
G|------------------|x4
D|------------------|
A|-7-5-7--77-66-5-6-|
E|------------------|

Puente
G|-----------------------------------------------|x2
D|-----------------------------------------------|
A|-55h4-5-4h7--5h4-5-4h7--5h4-5-4h7--5-44-55-6h7-|
E|-----------------------------------------------|

Verso
G|--------------------------------|x8
D|--------------------------------|
A|-5-4h5-4h5-4h5\3/5--4h5-4h5-7-6-|
E|--------------------------------|

Coro
G|------------------|x4
D|------------------|
A|-7-5-7--77-66-5-6-|
E|------------------|

Solo de Guitarra
G|------|x2
D|------|
A|-17\5-|
E|------|

Solo de Bajo  *Slap y Pop*
G|----7-x-7-x--7h5--7h5p7----7-x-7-x-|x4
D|-----------------------------------|
A|-55---------------------55---------|
E|-----------------------------------|
   ss p   p    p    p     ss p   p

Puente
G|-----------------------------------------------|x2
D|-----------------------------------------------|
A|-55h4-5-4h7--5h4-5-4h7--5h4-5-4h7--5-44-55-6h7-|
E|-----------------------------------------------|

Coro
G|------------------|x8
D|------------------|
A|-7-5-7--77-66-5-6-|
E|------------------|

Puente
G|-----------------------------------------------|x2
D|-----------------------------------------------|
A|-55h4-5-4h7--5h4-5-4h7--5h4-5-4h7--5-44-55-6h7-|
E|-----------------------------------------------|

Escuchá la canción para saber el ritmo
Suggest correction
Give kudos to tab author, rate the tab!
1 2 3 4 5
comments
print report bad tab
guest
You may want to rate the tab now too:
select rating
Wanna post a correction for this tab? Suggest correction