Oops, an error
Loading. Please wait.

Mamar Bass

by Molotov
111 views 1 this week
no commentswrite comment
1 2 3 4 5
3 more votes to show rating
add to favorites
launch autoscroll
font size
0
reset
guitar tuner
×
Best way to learn
"Mamar"
Autoscroll
slow
fast
+/-
esc
set tempo
stop
 BUENO ESTA ESTA MUCHO MEJOR QUE LA ANTERIOR QUE SUBI
LA OTRA TENIA COMO 17 VOTOS Y TENIA 7.58 ESTA ESTA MAS
DE 9.5 ARRIBA TIJUANA Y HABER SI SE LA APRENDEN

intro

saca tu papa tu papa tu papa saca tu papa tu papa bueno
algo asi dice es lo de menos ya captaron ahi se ponen ha hacer
eso de abajo en cada cierto tiempo ok eso es el intro
OJO SOLO LO DEL 5

G---
D---
A-5-
E---

Y YA DESPUES QUE ENTRA LA PILA Y YA QUE DICE
CREO QUE MAMAR TE ESTA VOLVIENDO LOCA HACES ESTO

G------------------------------------------------
D------------------------------------------------
A-5-5-5---5555-0-0-0--0000-1-1-1-1111------------
E-------------------------------------3-3-3-3333-

AKI ATENCION EN LA ULTIMA QUE DICE CREO QUE MAMAR
TE ESTA VOLVIENDO LOCA HAY UN CAMBIO AHI LES VA

G-------------------
D-------------------
A-------------------
E-5-3-1-0-0-5-3-1-0-

DESPUES HACES ESTO
POR EL NUMERO DE VECES QUE SEA NECESARIO

G----------------------------
D----------------------------
A555555555555555555555555555-
E----------------------------

Y LUEGO TE SALTAS A ESTO

EN EL VERSO 2 ES
POR LO QUE DURA EL VERSO

G--------------
D-----3-5------
A55-5----------
E--------------

coro CREO QUE CREO QUE

G------------------------------------------------
D------------------------------------------------
A-5-5-5---5555-0-0-0--0000-1-1-1-1111------------
E-------------------------------------3-3-3-3333-


Y AHI UNA PARTE EN DONDE SE ESCUCHA LA PILA
dejen sonar la nota y ya

G-----------
D-----------
A-5---------
E---5-3-5---

Y BUENO EN LA PARTE DONDE LE BAJAN UN POKITO
Y DICE OSTRO OSTRO PISTO OSTRO

G-------------------
D-------------------
A-------------------
E-5-3-1-0-0-5-3-1-0-

y bueno no creo que esten tan weyes como para no saber
el orden no sean huevas si quieren mejor la toco por uds

BUENO DESPUES REPITES EL CORO CIERTO NUMERO DE VECES

G------------------------------------------------
D------------------------------------------------
A-5-5-5---5555-0-0-0--0000-1-1-1-1111------------
E-------------------------------------3-3-3-3333-

el final es asi

G--------------------------------------
D--------------------------------------
A-5-5-5---5555-7-7-7--7777--8-8-8-8888-
E--------------------------------------

G--------------------------------------
D--------------------------------------
A--------------------------------------
E-10-10-10-10-10-10-10-10-10-10-10-10-- las veces necesarias

y luego terminas en

G---
D---
A-5-
E---

AHI ESTA. SALUDOS A TODA LA BANDA QUE LE CAE Y A LOS QUE NOS
INVITAN A LAS  TIJUANA. Y HECHENLE GANAS.
Suggest correction
Give kudos to tab author, rate the tab!
1 2 3 4 5
comments
print report bad tab
guest
You may want to rate the tab now too:
select rating
Wanna post a correction for this tab? Suggest correction