Oops, an error
Loading. Please wait.

Mas Vale Cholo Bass Tab

version 1
version 1

Whole song

Interactive

652 views 3 this week
no commentswrite comment
1 2 3 4 5
3 more votes to show rating
add to favorites
launch autoscroll
font size
0
reset
guitar tuner
×
Best way to learn
"Mas Vale Cholo"
Autoscroll
slow
fast
+/-
esc
set tempo
stop
Verso **3VECES**
G|---------|x4
D|---------|
A|-------1-|
E|-1-2-3---|

 |--------------------------|x4
 |---------------1-0--0-1-3-|
 |------1-0-1-2-3---3-------|
 |-1-2-3--------------------|

Pre-Coro
G|---------------------|
D|-6-4-----------------|
A|----6-4-2-4-2--------|
E|-------------0-1-2-3-|

Coro
G|----------------------|x4
D|-55-3-5--3--------3-5-|
A|----------55-5-4-3----|
E|----------------------|

Verso **3VECES**
G|---------|x4
D|---------|
A|-------1-|
E|-1-2-3---|

 |--------------------------|x4
 |---------------1-0--0-1-3-|
 |------1-0-1-2-3---3-------|
 |-1-2-3--------------------|

Pre-Coro
G|---------------------|
D|-6-4-----------------|
A|----6-4-2-4-2--------|
E|-------------0-1-2-3-|

Coro **2VECES**
G|----------------------|x4
D|-55-3-5--3--------3-5-|
A|----------55-5-4-3----|
E|----------------------|

Puente (Muchas veces, cada vez más rápido)
G|--------------------------|
D|---------------1-0--0-1-3-|
A|------1-0-1-2-3---3-------|
E|-1-2-3--------------------|

Pre-Coro (Final)
G|---------------------|
D|-6-4-----------------|
A|----6-4-2-4-2--------|
E|-------------0-1-2-3-|

Escuchá la canción para saber el ritmo
Suggest correction
Give kudos to tab author, rate the tab!
1 2 3 4 5
comments
print report bad tab
guest
You may want to rate the tab now too:
select rating
Wanna post a correction for this tab? Suggest correction