Oops, an error
Loading. Please wait.

Mas Vale Cholo Tab

version 1
version 1

Whole song

Interactive

360 views 3 this week
no commentswrite comment
1 2 3 4 5
3 more votes to show rating
add to favorites
launch autoscroll
font size
0
reset
how to read this tab
guitar tuner
Autoscroll
slow
fast
+/-
esc
set tempo
stop
Help us to improve Ultimate-Guitar.com Take our survey!
×
Esta es la parte del bajo:
|-----------|
|-----------|
|-------1---|
|-1-2-3-----|


|-----------------------------|
|-----------------------------|
|-----------------------------|
|-----------------1-0---0-1-3-|
|-------1-0-1-2-3-----3-------|
|-1-2-3-----------------------|

le dije men ya estas muy pasado...
|-------------------------|
|-------------------------|
|-------------------------|
|-5-3---------------------|
|-----5-3--1-3-1----------|
|---------------0-1-2-3---|

no se pelien men, no se pelien...
|-----------------------------|
|-----------------------------|
|-----------------------------|
|-5--3/5-3/5------------------|
|-3--1/3-1/3------------------|
|-----------------------------|

esta parte se taca solo una vez, cuando estan cantando no se valien men,
no se valien...

|-----------------------------|
|------------------^----------|
|---5-5-3-5--3-----3----------|
|---5-5-3-5--3-5-3-3----------|
|--------------5-3------------|
|-----------------------------|

                                      ****aqui es donde se pone loco****
|-----------------------------|
|-----------------------------|
|-----------------------------|
|-----------------1-0---0-1-3-|
|-------1-0-1-2-3-----3-------|
|-1-2-3-----------------------|

|---------------|
|---------------|
|---------------|
|---5-----------|
|---5-----------|
|---3-----------|

|-------------------------|
|-------------------------|
|-------------------------|
|-5-3---------------------|
|-----5-3--1-3-1----------|
|---------------0-1-2-3---|

(solo le correji algunas cosas espero les guste)
Suggest correction
Give kudos to tab author, rate the tab!
1 2 3 4 5
comments
print report bad tab
guest
You may want to rate the tab now too:
select rating
Wanna post a correction for this tab? Suggest correction