Oops, an error
Loading. Please wait.

Mata Ttt Chords

by Molotov
76 views 3 this week
no commentswrite comment
1 2 3 4 5
3 more votes to show rating
add to favorites
launch autoscroll
font size
0
reset
transpose
0
reset
display chords
guitar tuner
×
Best way to learn
"Mata Ttt"
Autoscroll
slow
fast
+/-
esc
set tempo
stop
Esta es una version personal. Asi me gusta tocarla. Como podran darse
cuenta tiene mas peladeces de las acostumbradas. Primero les dare la 
tablatura del intro y los acordes.

INTRO
E/---------------------------------------------------------------------/
B/---------------------------------------------------------------------/
G/---------------------------------------------------------------------/
D/----------------------------------------5-5-5-5-7-7-7-7-7-7----------/
A/5-5-5-5-5-5-5-2-2-2-2-2-2-2-5-5-5-5-5-5-3-3-3-3-5-5-5-5-5-5----------/
E/3-3-3-3-3-3-3-0-0-0-0-0-0-0-3-3-3-3-3-3------------------------------/

Acordes
G Em G A#m

Para estrofas
E/---------------------------------------------------------------------/
B/---------------------------------------------------------------------/
G/---------------------------------------------------------------------/
D/------------------------------------1-3------------------------------/
A/--------------1---------------1-3-1-----3-----------------1----------/
E/3-1-3-1-3-1-3---3-1-3-1-3-1-3-------------1-3-1-3-1-3-1-3---3-1-3----/


LIRICAS
Estas cansado de hacerle al gandalla
porque eres tierno y te crees un canalla
estas cansado de burlarte de mi
estas cansado de aburrirte de ti
por eso te recomiendo que a tu desayuno le pongas veneno del bueno
por eso te recomiendo que a tu desayuno le pongas veneno del bueno
Y si te gustan emociones fuertes, y si te gustan emociones fuertes
porque no te tumbas los dientes y ves cuanto aguantas prendiendote cuetes
porque no te tumbas los dientes y ves cuanto aguantas prendiendote cuetes
A mi se me hace que estas asustado, a mi se me hace que estas asustado
porque eres tierno y eres un tarado, y es que eres tierno y eres un tarado

ESTRIBILLO:
G                   Em             G                        A#m
Matate Teté, que te mates Teté, te digo que te mates,que te mates Teté.
G                     Em                G                        A#m
Chingate Tete que te chingues Tete, te digo que te chingues que te chingues Tete

(Si quieren pueden repetir los acordes en la siguiente estrofa:)

Y si te late ponernos los cuernos
porque no te largas, te vas al infierno
y le comentas a Satanás
que vienes de parte del Huidos
que no quiero verte jamas
Y si te pasa, y si te pasa, porque no te pasas
a mejor vida, y si te infectas del virus del SIDA
y asi me dejas de molestar,
y si te pasa el reventarte,
porque no mejor te revientas la madre
porque no mejor te destrozas la madre
porque no mejor te retumbas la madre
porque no mejor te chingas la madre

ESTRIBILLO

Y si te piensas que eres muy llevado
Y si te piensas que eres muy llevado
porque no te lleva, te lleva el carajo
te lleva la chingada y te cambias de trabajo
cambias de trabajo y te cambias de oficio
cambias de oficio avientate de un precipicio
ya de perdida avientate de un edificio
ya de perdida avientate de un edificio

ESTRIBILLO
Suggest correction
Give kudos to tab author, rate the tab!
1 2 3 4 5
comments
print report bad tab
guest
You may want to rate the tab now too:
select rating
Wanna post a correction for this tab? Suggest correction