Oops, an error
Loading. Please wait.

Mata Ttt Tab

version 1
version 1

Whole song

by Molotov
124 views 1 this week
no commentswrite comment
1 2 3 4 5
3 more votes to show rating
add to favorites
×
Save as Personal and add changes to this tab that will be seen only by you. Learn more ›
×
You can save this tab as Personal to edit and correct it or add notes. All changes will be seen only by you. Learn more »
save as personal
new!
launch autoscroll
font size
0
reset
how to read this tab
guitar tuner
Autoscroll
slow
fast
+/-
esc
set tempo
stop
INTRO & COROS:

Adaptar al ritmo

E|-3-3-3-3-3--3-3-0-0-0-0-0--0-0|
A|-5-5-5-5-5--5-5-2-2-2-2-2--2-2|
D|------------------------------|
G|------------------------------|
B|------------------------------|
E|------------------------------|

E|-3-3-3-3-3--3-3-6-6-6-6-6-6-5-|
A|-5-5-5-5-5--5-5-8-8-8-8-8-8-7-|
D|------------------------------|
G|------------------------------|
B|------------------------------|
E|------------------------------|

ESTROFAS:

Alargar o acortar segun la longitud de la estrofa. 
En algunas se puede improvisar al final.
Aunque se toca en 5tas, recordar que 
todo esta en la escala de Em.

E|-3--1-3--1-3--1-3---1-|
A|-5--3-5--3-5--3-5-1-3-|
D|------------------3---|
G|----------------------|
B|----------------------|
E|----------------------|

En realidad es una cancion muy sencilla, 
pero hay que tener muy en cuenta los tiempos y 
las entradas de las segundas voces 
sobre los finales de las estrofas.
Suggest correction
Give kudos to tab author, rate the tab!
1 2 3 4 5
comments
print report bad tab
guest
Wanna post a correction for this tab? Suggest correction