Oops, an error
Loading. Please wait.

Mata Ttt Bass

version 2
version 2

Whole song

by Molotov
85 views 1 this week
no commentswrite comment
1 2 3 4 5
3 more votes to show rating
add to favorites
×
Save as Personal and add changes to this tab that will be seen only by you. Learn more ›
×
You can save this tab as Personal to edit and correct it or add notes. All changes will be seen only by you. Learn more »
save as personal
new!
launch autoscroll
font size
0
reset
guitar tuner
Autoscroll
slow
fast
+/-
esc
set tempo
stop
 dudas o sugerencias
(bueno ni las manden no las tomare encuenta XD)


 Intro (Bajo con un efecto chilo)
   G|--7-7-7-7-7--77--4-4-4-4-4-44--7-7-7-7-7-77-- (2x)
   D|--5-5-5-5-5--55--2-2-2-2-2-22--5-5-5-5-5-55--
   A|--6-6-6-6-6--66--3-3-3-3-3-33--6-6-6-6-6-66--
   E|--7-7-7-7-7--77--4-4-4-4-4-44--7-7-7-7-7-77--

   G|---10-10-10-10-10-10---99--------------------
   D|---8--8--8--8--8--8----88--------------------
   A|---9--9--9--9--9--9----77--------------------
   E|---10-10-10-10-10-10---99--------------------


- - - - - - - - - - - - - - - - - - - - - - - - - - -


      (ya despues de las dos repeticiones de lo de arriba
       entra el otro bajo asi) (Los 2 bajos tocan lo mismo)

       de que inicie el Verso.-
   G|------------------------------------------  (2x)
   D|------------------------------------------
   A|------------------------------------------
   E|-3-3-3-3-3-33-0-0-0-0-0-00-3-3-3-3-3-33---

   G|----------------------------------
   D|----------------------------------
   A|-1-1-1-1-1-1-00-------------------
   E|----------------------------------


- - - - - - - - - - - - - - - - - - - - - - - - - - -- - - - -

  Paco  (Bajo sin efecto)       Miky   (Bajo con efecto)
                                         el del Intro
 G|--------------------------------(12x) G|----------------------(12x)
 D|--------------------------------      D|----------------4-----
 A|---------------1----------------      A|--6-4-6-4-6-4-6-------
 E|-3-1-3-1-3-1-3------------------      E|----------------------

Donde dice
"Porque no te tumbas los dientes y ves
cuanto aguantas prendiendote que?"

Se toca Esto

       (Paco)                                    (Miky)
 G|-------------------------------  G|------------------------------
 D|-------------------------------  D|------------------------------
 A|-------------------------------  A|-6-4-6-4-6-4-6-4-6-4-6-4-6----
 D|-3-1-3-1-3-1-3-1-3-1-3-1-3-1---  E|------------------------------

Cuando dice "Cuetes!"  se deja de tocar por un momento

                      y otra ves se toca esto
       (Paco)                                        (Miky)
 G|-------------------------------  G|------------------------------
 D|-------------------------------  D|------------------------------
 A|-------------------------------  A|-6-4-6-4-6-4-6-4-6-4-6-4-6----
 D|-3-1-3-1-3-1-3-1-3-1-3-1-3-1---  E|------------------------------

En "Ami se me hace..."

se epiesa a tocar esto otra ves

       Paco  (Bajo sin efecto)              Miky   (Bajo con efecto)
                                                  el del Intro
 G|--------------------------------(4x)  G|----------------------(4x)
 D|--------------------------------      D|----------------4-----
 A|---------------1----------------      A|--6-4-6-4-6-4-6-------
 E|-3-1-3-1-3-1-3------------------      E|----------------------

- - - - - - - - - - - - - - - - - - - - - - - - -

   Pre-Coro
          (Miky)
   G|--7-7-7-7-7--77--4-4-4-4-4-44--7-7-7-7-7-77-- (2x)
   D|--5-5-5-5-5--55--2-2-2-2-2-22--5-5-5-5-5-55--
   A|--6-6-6-6-6--66--3-3-3-3-3-33--6-6-6-6-6-66--
   E|--7-7-7-7-7--77--4-4-4-4-4-44--7-7-7-7-7-77--

   G|---10-10-10-10-10-10---99--------------------
   D|---8--8--8--8--8--8----88--------------------
   A|---9--9--9--9--9--9----77--------------------
   E|---10-10-10-10-10-10---99--------------------


      Coro

           (Los 2 bajos)
   G|------------------------------------------  (4x)
   D|------------------------------------------
   A|------------------------------------------
   E|-3-3-3-3-3-33-0-0-0-0-0-00-3-3-3-3-3-33---

   G|----------------------------------
   D|----------------------------------
   A|-1-1-1-1-1-1-00-------------------
   E|----------------------------------

- - - - - - - - - - - - - - - - - - - - - - - - -

   Segundo Verso

       Paco  (Bajo sin efecto)              Miky   (Bajo con efecto)
 G|--------------------------------(7x)G|----------------------(2x)
 D|--------------------------------    D|----------------4-----
 A|---------------1----------------    A|--6-4-6-4-6-4-6-------
 E|-3-1-3-1-3-1-3------------------    E|----------------------

          Donde dice "Que no quiero verte jamas" no se toca nada


       Paco  (Bajo sin efecto)        Miky   (Bajo con efecto)
                                               el del Intro
 G|--------------------------------(3x)   G|----------------------(3x)
 D|--------------------------------       D|----------------4-----
 A|---------------1----------------       A|--6-4-6-4-6-4-6-------
 E|-3-1-3-1-3-1-3------------------       E|----------------------


Donde dice "y asi me dejas de molestar" no se toca nada despues
 se toca

       Paco  (Bajo sin efecto)            Miky   (Bajo con efecto)
 G|--------------------------------(4x)G|-----------------------4-(4x)
 D|--------------------------------    D|--66-4-66-4-66-4-66-4---
 A|---------------1----------------    A|------------------------
 E|-3-1-3-1-3-1-3------------------    E|------------------------
                                            Esto se toka un pokito
                                              mas rapido


 - - - - - - - - - - - - - - - - - - - - - - - - - - - - -

 Antes del Coro
   G|--7-7-7-7-7--77--4-4-4-4-4-44--7-7-7-7-7-77-- (2x)
   D|--5-5-5-5-5--55--2-2-2-2-2-22--5-5-5-5-5-55--
   A|--6-6-6-6-6--66--3-3-3-3-3-33--6-6-6-6-6-66--
   E|--7-7-7-7-7--77--4-4-4-4-4-44--7-7-7-7-7-77--

   G|---10-10-10-10-10-10---99--------------------
   D|---8--8--8--8--8--8----88--------------------
   A|---9--9--9--9--9--9----77--------------------
   E|---10-10-10-10-10-10---99--------------------


    Coro

           (Los 2 bajos)
   G|------------------------------------------  (4x)
   D|------------------------------------------
   A|------------------------------------------
   E|-3-3-3-3-3-33-0-0-0-0-0-00-3-3-3-3-3-33---

   G|----------------------------------
   D|----------------------------------
   A|-1-1-1-1-1-1-00-------------------
   E|----------------------------------

- - - - - - - - - - - - - - - -  - - - - - - - - - - - - - -

  "Alivianame ñor"


 Verso*

          (Paco)
   G|------------------------------------------  (6x)
   D|------------------------------------------
   A|----3--6--4-------------------------------
   E|------------------------------------------
          (miky)
   G|------------------------------------------  (6x)
   D|------------------------------------------
   A|--------13-12-----------------------------
   E|----11------------------------------------

------------------------------------------------------------------
   Antes del Coro
   G|--7-7-7-7-7--77--4-4-4-4-4-44--7-7-7-7-7-77-- (4x)
   D|--5-5-5-5-5--55--2-2-2-2-2-22--5-5-5-5-5-55--
   A|--6-6-6-6-6--66--3-3-3-3-3-33--6-6-6-6-6-66--
   E|--7-7-7-7-7--77--4-4-4-4-4-44--7-7-7-7-7-77--

   G|---10-10-10-10-10-10---99--------------------
   D|---8--8--8--8--8--8----88--------------------
   A|---9--9--9--9--9--9----77--------------------
   E|---10-10-10-10-10-10---99--------------------


     Coro

           (Los 2 bajos)
   G|------------------------------------------  (4x)
   D|------------------------------------------
   A|------------------------------------------
   E|-3-3-3-3-3-33-0-0-0-0-0-00-3-3-3-3-3-33---

   G|----------------------------------
   D|----------------------------------
   A|-1-1-1-1-1-1-00-------------------
   E|----------------------------------


Final

  Cierran con esto
           (Paco)
   G|------------------------------------------  (1x)
   D|------------------------------------------
   A|------------------------------------------
   E|-3-3-3-3-3-1-1-1-1-1~---------------------

   G|-6-6-6-6-6--4-4-4-4-4~--------------------  (1x)
   D|-4-4-4-4-4--3-3-3-3-3~--------------------
   A|-5-5-5-5-5--4-4-4-4-4~--------------------
   E|-5-5-5-5-5--4-4-4-4-4~--------------------
Suggest correction
Give kudos to tab author, rate the tab!
1 2 3 4 5
comments
print report bad tab
guest
Wanna post a correction for this tab? Suggest correction