Oops, an error
Loading. Please wait.

Mata Ttt Tab

version 2
version 2

Whole song

56 views 3 this week
no commentswrite comment
1 2 3 4 5
3 more votes to show rating
add to favorites
launch autoscroll
font size
0
reset
how to read this tab
guitar tuner
Autoscroll
slow
fast
+/-
esc
set tempo
stop
Help us to improve Ultimate-Guitar.com Take our survey!
×
E||------------------|------------------|------------------|------------------|
B||------------------|------------------|------------------|------------------|
G||------------------|------------------|------------------|------------------|
D||------------------|------------------|------------------|------------------|
A||------------------|------------------|------------------|------------------|
E||------------------|------------------|------------------|------------------|


------------------|------------------|------------------|------------------|
------------------|------------------|------------------|------------------|
------------------|------------------|------------------|------------------|
------------------|------------------|------------------|------------------|
------------------|------------------|------------------|------------------|
------------------|------------------|------------------|------------------|


-------------------------|-------------------------|-------------------------|
-------------------------|-------------------------|-------------------------|
-------------------------|-------------------------|-------------------------|
--5--5--5--5--5----5--5/-|--2--2--2--2--2----2--2/-|--5--5--5--5--5----5--5/-|
--5--5--5--5--5----5--5/-|--2--2--2--2--2----2--2/-|--5--5--5--5--5----5--5/-|
--3--3--3--3--3----3--3/-|--0--0--0--0--0----0--0/-|--3--3--3--3--3----3--3/-|


--------------------------|-------------------------|-------------------------|
--------------------------|-------------------------|-------------------------|
--------------------------|-------------------------|-------------------------|
--8--8--8--8--8--8--7--7--|--5--5--5--5--5----5--5/-|--2--2--2--2--2----2--2/-|
--8--8--8--8--8--8--7--7--|--5--5--5--5--5----5--5/-|--2--2--2--2--2----2--2/-|
--6--6--6--6--6--6--5--5--|--3--3--3--3--3----3--3/-|--0--0--0--0--0----0--0/-|


-------------------------|--------------------------|----------------------|
-------------------------|--------------------------|----------------------|
-------------------------|--------------------------|----------------------|
--5--5--5--5--5----5--5/-|--8--8--8--8--8--8--7--7--|----------------------|
--5--5--5--5--5----5--5/-|--8--8--8--8--8--8--7--7--|----------------------|
--3--3--3--3--3----3--3/-|--6--6--6--6--6--6--5--5--|--3------1--3------1--|


-----------------------|----------------------|-------------------------|
-----------------------|----------------------|-------------------------|
-----------------------|----------------------|-----------------1--2b---|
-----------------------|----------------------|-----------1--3----------|
---------------1-------|----------------------|-----1--3----------------|
--3------1--3-----1----|--3------1--3------1--|--3----------------------|


----------------------|----------------------|------------------|
----------------------|----------------------|------------------|
----------------------|----------------------|------------------|
----------------------|----------------------|------------------|
----------------------|---------------1------|------------------|
--3------1--3------1--|--3------1--3---------|------------------|


-------------------|------------------|-------------------|------------------|
----------0--------|------------------|----------0--------|------------------|
----------0--------|------------------|----------0--------|------------------|
----------0--------|------------------|----------0--------|------------------|
----------0--------|------------------|----------0--------|------------------|
-------------------|------------------|-------------------|------------------|


-------------------|----------------------|----------------------|
----------0--------|----------------------|----------------------|
----------0--------|----------------------|----------------------|
----------0--------|----------------------|----------------------|
----------0--------|----------------------|----------------------|
-------------------|--3------1--3------1--|--3------1--3------1--|


----------------------|-----------------------|----------------------|
----------------------|-----------------------|----------------------|
----------------------|-----------------------|----------------------|
----------------------|-----------------------|----------------------|
----------------------|---------------1-------|----------------------|
--3------1--3------1--|--3------1--3-----1----|--3------1--3------1--|


----------------------|----------------------|-----------------------|
----------------------|----------------------|-----------------------|
----------------------|----------------------|-----------------------|
----------------------|----------------------|-----------------------|
----------------------|----------------------|---------------1-------|
--3------1--3------1--|--3------1--3------1--|--3------1--3-----1----|


------------------|-------------------|------------------|-------------------|
------------------|----------0--------|------------------|----------0--------|
------------------|----------0--------|------------------|----------0--------|
------------------|----------0--------|------------------|----------0--------|
------------------|----------0--------|------------------|----------0--------|
------------------|-------------------|------------------|-------------------|


----------------------|----------------------|----------------------|
----------------------|----------------------|----------------------|
----------------------|----------------------|----------------------|
----------------------|----------------------|----------------------|
----------------------|----------------------|----------------------|
--3------1--3------1--|--3------1--3------1--|--3------1--3------1--|


-----------------------|----------------------|----------------------|
-----------------------|----------------------|----------------------|
-----------------------|----------------------|----------------------|
-----------------------|----------------------|----------------------|
---------------1-------|----------------------|----------------------|
--3------1--3-----1----|--3------1--3------1--|--3------1--3------1--|


----------------------|-----------------------|------------------|
----------------------|-----------------------|------------------|
----------------------|-----------------------|------------------|
----------------------|-----------------------|------------------|
----------------------|---------------1-------|------------------|
--3------1--3------1--|--3------1--3-----1----|------------------|


-------------------|------------------|-------------------|------------------|
----------0--------|------------------|----------0--------|------------------|
----------0--------|------------------|----------0--------|------------------|
----------0--------|------------------|----------0--------|------------------|
----------0--------|------------------|----------0--------|------------------|
-------------------|------------------|-------------------|------------------|


-------------------|------------------|-------------------|------------------|
----------0--------|------------------|----------0--------|------------------|
----------0--------|------------------|----------0--------|------------------|
----------0--------|------------------|----------0--------|------------------|
----------0--------|------------------|----------0--------|------------------|
-------------------|------------------|-------------------|------------------|


------------------|------------------|------------------|------------------|
------------------|------------------|------------------|------------------|
------------------|------------------|------------------|------------------|
------------------|------------------|------------------|------------------|
------------------|------------------|------------------|------------------|
------------------|------------------|------------------|------------------|


------------------|------------------|------------------|
------------------|------------------|------------------|
------------------|------------------|------------------|
------------------|------------------|------------------|
------------------|------------------|------------------|
------------------|------------------|------------------|


-------------------------|-------------------------|-------------------------|
-------------------------|-------------------------|-------------------------|
-------------------------|-------------------------|-------------------------|
--5--5--5--5--5----5--5/-|--2--2--2--2--2----2--2/-|--5--5--5--5--5----5--5/-|
--5--5--5--5--5----5--5/-|--2--2--2--2--2----2--2/-|--5--5--5--5--5----5--5/-|
--3--3--3--3--3----3--3/-|--0--0--0--0--0----0--0/-|--3--3--3--3--3----3--3/-|


--------------------------|-------------------------|-------------------------|
--------------------------|-------------------------|-------------------------|
--------------------------|-------------------------|-------------------------|
--8--8--8--8--8--8--7--7--|--5--5--5--5--5----5--5/-|--2--2--2--2--2----2--2/-|
--8--8--8--8--8--8--7--7--|--5--5--5--5--5----5--5/-|--2--2--2--2--2----2--2/-|
--6--6--6--6--6--6--5--5--|--3--3--3--3--3----3--3/-|--0--0--0--0--0----0--0/-|


-------------------------|--------------------------|-------------------------|
-------------------------|--------------------------|-------------------------|
-------------------------|--------------------------|-------------------------|
--5--5--5--5--5----5--5/-|--8--8--8--8--8--8--7--7--|--5--5--5--5--5----5--5/-|
--5--5--5--5--5----5--5/-|--8--8--8--8--8--8--7--7--|--5--5--5--5--5----5--5/-|
--3--3--3--3--3----3--3/-|--6--6--6--6--6--6--5--5--|--3--3--3--3--3----3--3/-|


-------------------------|-------------------------|--------------------------|
-------------------------|-------------------------|--------------------------|
-------------------------|-------------------------|--------------------------|
--2--2--2--2--2----2--2/-|--5--5--5--5--5----5--5/-|--8--8--8--8--8--8--7--7--|
--2--2--2--2--2----2--2/-|--5--5--5--5--5----5--5/-|--8--8--8--8--8--8--7--7--|
--0--0--0--0--0----0--0/-|--3--3--3--3--3----3--3/-|--6--6--6--6--6--6--5--5--|


-------------------------|-------------------------|-------------------------|
-------------------------|-------------------------|-------------------------|
-------------------------|-------------------------|-------------------------|
--5--5--5--5--5----5--5/-|--2--2--2--2--2----2--2/-|--5--5--5--5--5----5--5/-|
--5--5--5--5--5----5--5/-|--2--2--2--2--2----2--2/-|--5--5--5--5--5----5--5/-|
--3--3--3--3--3----3--3/-|--0--0--0--0--0----0--0/-|--3--3--3--3--3----3--3/-|


--------------------------|----------------------|-----------------------|
--------------------------|----------------------|-----------------------|
--------------------------|----------------------|-----------------------|
--8--8--8--8--8--8--7--7--|----------------------|-----------------------|
--8--8--8--8--8--8--7--7--|----------------------|---------------1-------|
--6--6--6--6--6--6--5--5--|--3------1--3------1--|--3------1--3-----1----|


----------------------|-----------------------|------------------|
----------------------|-----------------------|------------------|
----------------------|-----------------------|------------------|
----------------------|-----------------------|------------------|
----------------------|---------------1-------|------------------|
--3------1--3------1--|--3------1--3-----1----|------------------|


------------------|------------------|------------------|------------------|
------------------|------------------|------------------|------------------|
------------------|------------------|------------------|------------------|
------------------|------------------|------------------|------------------|
------------------|------------------|------------------|------------------|
------------------|------------------|------------------|------------------|


------------------|------------------|------------------|------------------|
------------------|------------------|------------------|------------------|
------------------|------------------|------------------|------------------|
------------------|------------------|------------------|------------------|
------------------|------------------|------------------|------------------|
------------------|------------------|------------------|------------------|


------------------|----------------------|-----------------------|
------------------|----------------------|-----------------------|
------------------|----------------------|-----------------------|
------------------|----------------------|-----------------------|
------------------|----------------------|---------------1-------|
------------------|--3------1--3------1--|--3------1--3-----1----|


----------------------|-----------------------|----------------------|
----------------------|-----------------------|----------------------|
----------------------|-----------------------|----------------------|
----------------------|-----------------------|----------------------|
----------------------|---------------1-------|----------------------|
--3------1--3------1--|--3------1--3-----1----|--3------1--3------1--|


-----------------------|----------------------|-----------------------|
-----------------------|----------------------|-----------------------|
-----------------------|----------------------|-----------------------|
-----------------------|----------------------|-----------------------|
---------------1-------|----------------------|---------------1-------|
--3------1--3-----1----|--3------1--3------1--|--3------1--3-----1----|


----------------------|-----------------------|----------------------|
----------------------|-----------------------|----------------------|
----------------------|-----------------------|----------------------|
----------------------|-----------------------|----------------------|
----------------------|---------------1-------|----------------------|
--3------1--3------1--|--3------1--3-----1----|--3------1--3------1--|


-----------------------|----------------------|-----------------------|
-----------------------|----------------------|-----------------------|
-----------------------|----------------------|-----------------------|
-----------------------|----------------------|-----------------------|
---------------1-------|----------------------|---------------1-------|
--3------1--3-----1----|--3------1--3------1--|--3------1--3-----1----|


----------------------|-----------------------|----------------------|
----------------------|-----------------------|----------------------|
----------------------|-----------------------|----------------------|
----------------------|-----------------------|----------------------|
----------------------|---------------1-------|----------------------|
--3------1--3------1--|--3------1--3-----1----|--3------1--3------1--|


-----------------------|------------------|------------------|
-----------------------|------------------|------------------|
-----------------------|------------------|------------------|
-----------------------|------------------|------------------|
---------------1-------|------------------|------------------|
--3------1--3-----1----|------------------|------------------|


------------------|------------------|------------------|------------------|
------------------|------------------|------------------|------------------|
------------------|------------------|------------------|------------------|
------------------|------------------|------------------|------------------|
------------------|------------------|------------------|------------------|
------------------|------------------|------------------|------------------|


------------------|------------------|-------------------------|
------------------|------------------|-------------------------|
------------------|------------------|-------------------------|
------------------|------------------|--5--5--5--5--5----5--5/-|
------------------|------------------|--5--5--5--5--5----5--5/-|
------------------|------------------|--3--3--3--3--3----3--3/-|


-------------------------|-------------------------|--------------------------|
-------------------------|-------------------------|--------------------------|
-------------------------|-------------------------|--------------------------|
--2--2--2--2--2----2--2/-|--5--5--5--5--5----5--5/-|--8--8--8--8--8--8--7--7--|
--2--2--2--2--2----2--2/-|--5--5--5--5--5----5--5/-|--8--8--8--8--8--8--7--7--|
--0--0--0--0--0----0--0/-|--3--3--3--3--3----3--3/-|--6--6--6--6--6--6--5--5--|


-------------------------|-------------------------|-------------------------|
-------------------------|-------------------------|-------------------------|
-------------------------|-------------------------|-------------------------|
--5--5--5--5--5----5--5/-|--2--2--2--2--2----2--2/-|--5--5--5--5--5----5--5/-|
--5--5--5--5--5----5--5/-|--2--2--2--2--2----2--2/-|--5--5--5--5--5----5--5/-|
--3--3--3--3--3----3--3/-|--0--0--0--0--0----0--0/-|--3--3--3--3--3----3--3/-|


--------------------------|-------------------------|-------------------------|
--------------------------|-------------------------|-------------------------|
--------------------------|-------------------------|-------------------------|
--8--8--8--8--8--8--7--7--|--5--5--5--5--5----5--5/-|--2--2--2--2--2----2--2/-|
--8--8--8--8--8--8--7--7--|--5--5--5--5--5----5--5/-|--2--2--2--2--2----2--2/-|
--6--6--6--6--6--6--5--5--|--3--3--3--3--3----3--3/-|--0--0--0--0--0----0--0/-|


-------------------------|--------------------------|-------------------------|
-------------------------|--------------------------|-------------------------|
-------------------------|--------------------------|-------------------------|
--5--5--5--5--5----5--5/-|--8--8--8--8--8--8--7--7--|--5--5--5--5--5----5--5/-|
--5--5--5--5--5----5--5/-|--8--8--8--8--8--8--7--7--|--5--5--5--5--5----5--5/-|
--3--3--3--3--3----3--3/-|--6--6--6--6--6--6--5--5--|--3--3--3--3--3----3--3/-|


-------------------------|-------------------------|--------------------------|
-------------------------|-------------------------|--------------------------|
-------------------------|-------------------------|--------------------------|
--2--2--2--2--2----2--2/-|--5--5--5--5--5----5--5/-|--8--8--8--8--8--8--7--7--|
--2--2--2--2--2----2--2/-|--5--5--5--5--5----5--5/-|--8--8--8--8--8--8--7--7--|
--0--0--0--0--0----0--0/-|--3--3--3--3--3----3--3/-|--6--6--6--6--6--6--5--5--|


------------------|------------------|------------------|------------------|
------------------|------------------|------------------|------------------|
------------------|------------------|------------------|------------------|
------------------|------------------|------------------|------------------|
------------------|------------------|------------------|------------------|
------------------|------------------|------------------|------------------|


------------------|------------------|------------------|------------------|
------------------|------------------|------------------|------------------|
------------------|------------------|------------------|------------------|
------------------|------------------|------------------|------------------|
------------------|------------------|------------------|------------------|
------------------|------------------|------------------|------------------|


------------------|------------------|------------------|------------------|
------------------|------------------|------------------|------------------|
------------------|------------------|------------------|------------------|
------------------|------------------|------------------|------------------|
------------------|------------------|------------------|------------------|
------------------|------------------|------------------|------------------|


------------------|------------------|------------------|------------------|
------------------|------------------|------------------|------------------|
------------------|------------------|------------------|------------------|
------------------|------------------|------------------|------------------|
------------------|------------------|------------------|------------------|
------------------|------------------|------------------|------------------|


------------------|------------------|------------------|------------------|
------------------|------------------|------------------|------------------|
------------------|------------------|------------------|------------------|
------------------|------------------|------------------|------------------|
------------------|------------------|------------------|------------------|
------------------|------------------|------------------|------------------|


------------------|------------------|------------------|------------------|
------------------|------------------|------------------|------------------|
------------------|------------------|------------------|------------------|
------------------|------------------|------------------|------------------|
------------------|------------------|------------------|------------------|
------------------|------------------|------------------|------------------|


------------------|------------------|------------------|------------------|
------------------|------------------|------------------|------------------|
------------------|------------------|------------------|------------------|
------------------|------------------|------------------|------------------|
------------------|------------------|------------------|------------------|
------------------|------------------|------------------|------------------|


------------------|------------------|------------------|------------------|
------------------|------------------|------------------|------------------|
------------------|------------------|------------------|------------------|
------------------|------------------|------------------|------------------|
------------------|------------------|------------------|------------------|
------------------|------------------|------------------|------------------|


-------------------------|-------------------------|-------------------------|
-------------------------|-------------------------|-------------------------|
-------------------------|-------------------------|-------------------------|
--5--5--5--5--5----5--5/-|--2--2--2--2--2----2--2/-|--5--5--5--5--5----5--5/-|
--5--5--5--5--5----5--5/-|--2--2--2--2--2----2--2/-|--5--5--5--5--5----5--5/-|
--3--3--3--3--3----3--3/-|--0--0--0--0--0----0--0/-|--3--3--3--3--3----3--3/-|


--------------------------|-------------------------|-------------------------|
--------------------------|-------------------------|-------------------------|
--------------------------|-------------------------|-------------------------|
--8--8--8--8--8--8--7--7--|--5--5--5--5--5----5--5/-|--2--2--2--2--2----2--2/-|
--8--8--8--8--8--8--7--7--|--5--5--5--5--5----5--5/-|--2--2--2--2--2----2--2/-|
--6--6--6--6--6--6--5--5--|--3--3--3--3--3----3--3/-|--0--0--0--0--0----0--0/-|


-------------------------|--------------------------|-------------------------|
-------------------------|--------------------------|-------------------------|
-------------------------|--------------------------|-------------------------|
--5--5--5--5--5----5--5/-|--8--8--8--8--8--8--7--7--|--5--5--5--5--5----5--5/-|
--5--5--5--5--5----5--5/-|--8--8--8--8--8--8--7--7--|--5--5--5--5--5----5--5/-|
--3--3--3--3--3----3--3/-|--6--6--6--6--6--6--5--5--|--3--3--3--3--3----3--3/-|


-------------------------|-------------------------|--------------------------|
-------------------------|-------------------------|--------------------------|
-------------------------|-------------------------|--------------------------|
--2--2--2--2--2----2--2/-|--5--5--5--5--5----5--5/-|--8--8--8--8--8--8--7--7--|
--2--2--2--2--2----2--2/-|--5--5--5--5--5----5--5/-|--8--8--8--8--8--8--7--7--|
--0--0--0--0--0----0--0/-|--3--3--3--3--3----3--3/-|--6--6--6--6--6--6--5--5--|


-------------------------|-------------------------|-------------------------|
-------------------------|-------------------------|-------------------------|
-------------------------|-------------------------|-------------------------|
--5--5--5--5--5----5--5/-|--2--2--2--2--2----2--2/-|--5--5--5--5--5----5--5/-|
--5--5--5--5--5----5--5/-|--2--2--2--2--2----2--2/-|--5--5--5--5--5----5--5/-|
--3--3--3--3--3----3--3/-|--0--0--0--0--0----0--0/-|--3--3--3--3--3----3--3/-|


--------------------------|-----------------------|-----------------------||
--------------------------|-----------------------|-----------------------||
--------------------------|-----------------------|-----------------------||
--8--8--8--8--8--8--7--7--|--5--5--5--5--5--------|--2--2--2--2--2--------||
--8--8--8--8--8--8--7--7--|--5--5--5--5--5--------|--2--2--2--2--2--------||
--6--6--6--6--6--6--5--5--|--3--3--3--3--3--------|--0--0--0--0--0--------||
Suggest correction
Give kudos to tab author, rate the tab!
1 2 3 4 5
comments
print report bad tab
guest
You may want to rate the tab now too:
select rating
Wanna post a correction for this tab? Suggest correction