Oops, an error
Loading. Please wait.

Mi Amigo El Pomo Bass Tab

50 views 1 this week
no commentswrite comment
1 2 3 4 5
3 more votes to show rating
add to favorites
launch autoscroll
font size
0
reset
guitar tuner
×
Best way to learn
"Mi Amigo El Pomo"
Autoscroll
slow
fast
+/-
esc
set tempo
stop
Esta canción está SUPER CHIDA y van con dedicación especial para mis amigos !!
Cesar,Roberto,Pacorro,Chars,Curro,Tevye... ¡¡¡¡SALUD!!!!

   INTRO:
G|---------------------------|
D|--6----------3/6-----------|
A|----9-8-7-6------9-8-7-6/--|
E|---------------------------|


  
   VERSO 1:  
                                                                                       Antes de que
                                                                                       empiece el 2° verso
G|-------------------------------------------------------------------------------------|--------|
D|--66--66--66--66--66--66--66--66--66--66-------------------------------------6-------|--------|
A|----69--69--69--69--69--69--69--69--69--69-66--66-6---76--76--76--76--76--76--9-7-6--|-6-9-10-|
E|---------------------------------------------69--6--44--44--44--44--44--44-----------|--------|


   VERSO 2:
G|----------------------------------------------------------------------|
D|--66--66--66--66--66--66--------------------------------------6-------|
A|----69--69--69--69--69--69-66--66-6---76--76--76--76--76--76---9-7-6--|
E|-----------------------------69--6--44--44--44--44--44--44------------|


   CORO:
   Este es mi amigo el POMO...
G|-----------------------------------------------------------------|
D|---------------------------------58--58---3---3---3---3---3---3--|
A|-------------------------------66--66--114-114-114-114-114-114---|
E|-4474-4474-4474-4474-4474-4474-----------------------------------|


G|-----------------------------------------------------------------|--------|--------|
D|---------------------------------58--58---3---3---3---3---3---3--|--------|--------|
A|-------------------------------66--66--114-114-114-114-114-114---|--3~~-1-|-6-9-10-|
E|-4474-4474-4474-4474-4474-4474-----------------------------------|--------|--------|


   VERSO 1:  
                                                                                        Antes de que
                                                                                        empiece el 2° verso  
G|-------------------------------------------------------------------------------------|--------|
D|--66--66--66--66--66--66--66--66--66--66-------------------------------------6-------|--------|
A|----69--69--69--69--69--69--69--69--69--69-66--66-6---76--76--76--76--76--76--9-7-6--|-6-9-10-|
E|---------------------------------------------69--6--44--44--44--44--44--44-----------|--------|


   VERSO 2:
G|----------------------------------------------------------------------|
D|--66--66--66--66--66--66--------------------------------------6-------|
A|----69--69--69--69--69--69-66--66-6---76--76--76--76--76--76---9-7-6--|
E|-----------------------------69--6--44--44--44--44--44--44------------|


   CORO:
   Este es mi amigo el POMO...
G|-----------------------------------------------------------------|
D|---------------------------------58--58---3---3---3---3---3---3--|
A|-------------------------------66--66--114-114-114-114-114-114---|
E|-4474-4474-4474-4474-4474-4474-----------------------------------|


G|-----------------------------------------------------------------|------------------|
D|---------------------------------58--58---3---3---3---3---3---3--|-----3------------|
A|-------------------------------66--66--114-114-114-114-114-114---|--3~~-1----1------|
E|-4474-4474-4474-4474-4474-4474-----------------------------------|-------4321-4321--|


  ******Aquí otra vez se repite el CORO pero esta vez sube 2 tonos******

G|-------------------------------------------------------------------------|
D|---------------------------------------710--710---5---5---5---5---5---5--|
A|-------------------------------------88---88---336-336-336-336-336-336---|
E|-66106-66106-66106-66106-66106-66106-------------------------------------|


G|-------------------------------------------------------------------------|------|
D|---------------------------------------710--710---5---5---5---5---5---5--|------|
A|-------------------------------------88---88---336-336-336-336-336-336---|--5~~-|
E|-66106-66106-66106-66106-66106-66106-------------------------------------|------|


   FINAL:
G|--------------------------|
D|--------------------------|
A|-1---------1--------1~~~--|
E|---4-3-2-1---4-3-2-1------|
Suggest correction
Give kudos to tab author, rate the tab!
1 2 3 4 5
comments
print report bad tab
guest
You may want to rate the tab now too:
select rating
Wanna post a correction for this tab? Suggest correction