Oops, an error
Loading. Please wait.

Mi Amigo El Puma Bass

by Molotov
47 views 3 this week
no commentswrite comment
1 2 3 4 5
3 more votes to show rating
add to favorites
×
Save as Personal and add changes to this tab that will be seen only by you. Learn more ›
×
You can save this tab as Personal to edit and correct it or add notes. All changes will be seen only by you. Learn more »
save as personal
new!
launch autoscroll
font size
0
reset
guitar tuner
Autoscroll
slow
fast
+/-
esc
set tempo
stop
Intro
G|---------------------|x2
D|---------------------|
A|-9----7----5----3--2-|
E|---------------------|

Verso *2 veces*  (la 2°, haciendo el 1er riff solo 4 veces)
G|---------|---------|---------|---|---------------------|
D|---------|---------|---------|---|---------------------|
A|-9-9-7h9-|-7-7-5h7-|-5-5-3h5-|-5-|-9----7----5----3--2-|
E|---------|---------|---------|---|---------------------|
 |10 Veces | 2 Veces | 8 Veces |   ' pin-che  ma-móón...'

Coro *2 Veces*  (la 2°, sin el último riff)
G|---------|---------|---------|---------|
D|---------|---------|---------|---------|
A|-5-5-3h5-|-9-9-7h9-|-7-7-5h7-|-5-5-3h5-|
E|---------|---------|---------|---------|
 | 8 Veces | 2 Veces | 8 Veces | 2 Veces |

Verso *2 veces*  (la 2°, haciendo el 1er riff solo 4 veces)
G|---------|---------|---------|---|---------------------|
D|---------|---------|---------|---|---------------------|
A|-9-9-7h9-|-7-7-5h7-|-5-5-3h5-|-5-|-9----7----5----3--2-|
E|---------|---------|---------|---|---------------------|
 |10 Veces | 2 Veces | 8 Veces |   ' pin-che  ma-móón...'

Coro *2 Veces*  (la 2°, sin el último riff)
G|---------|---------|---------|---------|
D|---------|---------|---------|---------|
A|-5-5-3h5-|-9-9-7h9-|-7-7-5h7-|-5-5-3h5-|
E|---------|---------|---------|---------|
 | 8 Veces | 2 Veces | 8 Veces | 2 Veces |

Puente
G|---------------------|x2
D|---------------------|
A|-9----7----5----3--2-|
E|---------------------|

Coro *2 Veces*  (la 2°, sin el último riff)
G|---------|---------|---------|---------|
D|---------|---------|---------|---------|
A|-5-5-3h5-|-9-9-7h9-|-7-7-5h7-|-5-5-3h5-|
E|---------|---------|---------|---------|
 | 8 Veces | 2 Veces | 8 Veces | 2 Veces |

Puente
G|---------------------|x2
D|---------------------|
A|-9----7----5----3--2-|
E|---------------------|

Escuchá la canción para saber el ritmo
Suggest correction
Give kudos to tab author, rate the tab!
1 2 3 4 5
comments
print report bad tab
guest
Wanna post a correction for this tab? Suggest correction