Oops, an error
Loading. Please wait.

Mi Amigo El Puma Tab

by Molotov
37 views 1 this week
no commentswrite comment
1 2 3 4 5
3 more votes to show rating
add to favorites
launch autoscroll
font size
0
reset
how to read this tab
guitar tuner
×
Best way to learn
"Mi Amigo El Puma"
Autoscroll
slow
fast
+/-
esc
set tempo
stop
intro:
Gtr 1
|-4---4---4---4---4---4----------|
|--4---4-------4---4---4---------|
|---4---4-------4---4------------|     
|--------------------------------| X4  
|--------------------------------|     
|--------------------------------|     
                                       
Gtr 2
|--4---4---4---4------------4---4---4---4---4-------|
|--4---4---4---4------------4---4---4---4---4-------|
|--4---4---4---4------------4---4---4---4---4-------|
|--6---6---6---6------------6---6---6---6---6-------| X8
|-(6)-(6)-(6)-(6)----------(6)-(6)-(6)-(6)-(6)------|
|-(4)-(4)-(4)-(4)----------(4)-(4)-(4)-(4)-(4)------|


Gtr 1   
|-4--4------------------------------11--------------(11)---9----|
|-----4-------------------------------11----------9h11----9-----|
|------4~-------------------------------11----------------------|
|---------------------------------------------------------------|
|---------------------------------------------------------------|
|---------------------------------------------------------------|
Gtr 2
|---------------------------------------------------------------|
|---------------------------------------------------------------|
|---------------------------------------------------------------|
|---------------------------------------------------------------|
|---------------------------------------------------------------|
|---------------------------------------------------------------|

*se tapa con la mano
VERSOS:
Gtr 2
|--4--4-*-4----4--4-*-4----4--4-*-4----6--6-*-6----4--4-*-4----4--4-*-4----4--4-*-4----4----6--6-*-6--|
|--4--4-*-4----4--4-*-4----4--4-*-4----7--7-*-7----5--5-*-5----5--5-*-5----5--5-*-5----5----7--7-*-7--|
|--4--4-*-4----4--4-*-4----4--4-*-4----8--8-*-8----6--6-*-6----6--6-*-6----6--6-*-6----6----8--8-*-8--|
|--6--6-*-6----6--6-*-6----6--6-*-6----8--8-*-8----6--6-*-6----6--6-*-6----6--6-*-6----6----8--8-*-8--|
|--6--6---6----6--6---6----6--6---6----6--6---6----4--4---4----4--4---4----4--4---4----4----6--6---6--|
|--4--4---4----4--4---4----4--4---4----6--6---6----4--4---4----4--4---4----4--4---4----4----6--6---6--|

Gtr 1
|--11--------------(11)--9------|
|----11----------9h11---9-------|
|------11-----------------------|
|-------------------------------|
|-------------------------------|
|-------------------------------|
Gtr 2
|--4--4-*-4----4--4-*-4----4--4-*-4----6--6-*-6----4--4-*-4----4--4-*-4----4--4-*-4----4----6--6-*-6--|
|--4--4-*-4----4--4-*-4----4--4-*-4----7--7-*-7----5--5-*-5----5--5-*-5----5--5-*-5----5----7--7-*-7--|
|--4--4-*-4----4--4-*-4----4--4-*-4----8--8-*-8----6--6-*-6----6--6-*-6----6--6-*-6----6----8--8-*-8--|
|--6--6-*-6----6--6-*-6----6--6-*-6----8--8-*-8----6--6-*-6----6--6-*-6----6--6-*-6----6----8--8-*-8--|
|--6--6---6----6--6---6----6--6---6----6--6---6----4--4---4----4--4---4----4--4---4----4----6--6---6--|
|--4--4---4----4--4---4----4--4---4----6--6---6----4--4---4----4--4---4----4--4---4----4----6--6---6--|

Coros:
|--4--4-*-4--4----4--4-*-4--4----4--4-*-4--4----6--6-*-6--6----6--6-*-6--6----6--6-*-6--6----6--6-*-6--6----4--4--*-4--4--|
|--4--4-*-4--4----4--4-*-4--4----4--4-*-4--4----6--6-*-6--6----6--6-*-6--6----6--6-*-6--6----6--6-*-6--6----4--4--*-4--4--|
|--4--4-*-4--4----4--4-*-4--4----4--4-*-4--4----6--6-*-6--6----6--6-*-6--6----6--6-*-6--6----6--6-*-6--6----5--5--*-5--5--|
|--6--6-*-6--6----6--6-*-6--6----6--6-*-6--6----8--8-*-8--8----8--8-*-8--8----8--8-*-8--8----8--8-*-8--8----6--6--*-6--6--|
|--6--6---6--6----6--6---6--6----6--6---6--6----8--8---8--8----8--8---8--8----8--8---8--8----8--8---8--8----6--6----6--6--|
|--4--4---4--4----4--4---4--4----4--4---4--4----6--6---6--6----6--6---6--6----6--6---6--6----6--6---6--6----4--4----4--4--|

|--4--4-*-4--4----4--4-*-4--4----4--4-*-4--4----6--6-*-6--6----6--6-*-6--6----6--6-*-6--6----6--6-*-6--6----6--|
|--4--4-*-4--4----4--4-*-4--4----4--4-*-4--4----6--6-*-6--6----6--6-*-6--6----6--6-*-6--6----6--6-*-6--6----6--|
|--4--4-*-4--4----4--4-*-4--4----4--4-*-4--4----6--6-*-6--6----6--6-*-6--6----6--6-*-6--6----6--6-*-6--6----6--|
|--6--6-*-6--6----6--6-*-6--6----6--6-*-6--6----8--8-*-8--8----8--8-*-8--8----8--8-*-8--8----8--8-*-8--8----8--|
|--6--6---6--6----6--6---6--6----6--6---6--6----8--8---8--8----8--8---8--8----8--8---8--8----8--8---8--8----8--|
|--4--4---4--4----4--4---4--4----4--4---4--4----6--6---6--6----6--6---6--6----6--6---6--6----6--6---6--6----6--|

en lo que sigue tiene muy pocas variaciones, como un rasgueo mas, etc.

2:39
|-6...--4...--1...--1...-------
|-6...--6...--2...--2...-------
|-6...--6...--1...--3...-------
|-8...--4...--0...--3...-------
|-8...--4...--0...--1...-------
|-6...--4...--0...--1...-------
Suggest correction
Give kudos to tab author, rate the tab!
1 2 3 4 5
comments
print report bad tab
guest
You may want to rate the tab now too:
select rating
Wanna post a correction for this tab? Suggest correction