Oops, an error
Loading. Please wait.

Molotov Cocktail Party Bass Tab

184 views 1 this week
no commentswrite comment
1 2 3 4 5
3 more votes to show rating
add to favorites
launch autoscroll
font size
0
reset
guitar tuner
×
Best way to learn
"Molotov Cocktail Party"
Autoscroll
slow
fast
+/-
esc
set tempo
stop
Esta cancion se toca con uñeta
si pones atencion al bajo vas
a darte cuenta.

Intro y verso
G|-----------------------|
D|-----------------5p0---|
A|-----------5h7-7-----7-|
E|-0-0-5h7-7-------------|

Cada 3 veces que toques el verso toca esto
G|-------------------------||
D|-------------------------||
A|-----------5-------5-----||
E|-0-0-5h7-7---7-6-5---7-6-||

Coro
G|--------------------------------------------------------------||
D|----------------------------------------------------------/11-||
A|-0-0-0-0-0-0-0-0-0-0-0-0-0-0-0-0-0-0-0-0-0-0-0-0-0-0-0-0------||
E|--------------------------------------------------------------||

Final 2do Coro
G|------------------------------------------------------------------||
D|------------------------------------------------------------------||
A|-0-0-0-0-0-0-0-0-0-0-0-0-0-0-0-0-0-0-0-0-0-0-0-0-5-7--------------||
E|-----------------------------------------------------5-7--5-7-3-0-||

Final 3er Coro
G|--------------------------------------------------------------------||
D|--------------------------------------------------------------11-12-||
A|-0-0-0-0-0-0-0-0-0-0-0-0-0-0-0-0-0-0-0-0-0-0-0-0-12-0-12-0-12-------||
E|--------------------------------------------------------------------||

En el solo de guitarra toca todo el rato la misma nota
G|---------------||
D|-12-12-12-12...||
A|---------------||
E|---------------||

O puedes tocar el solo que es terrible facil
Esta una octava mas grave que la guitarra
G|----------------------------------------------|
D|-------------------------------------11-13-11-|
A|-------9-10/12--10-9-10-9----9-10/12----------|
E|-10-10--------------------10------------------|

G|--------------------------------------------|
D|-------------------------------------11-13~-|
A|-------9-10/12--10-9-10-9----9-10/12--------|
E|-10-10--------------------10----------------|

G|----------------------------------------------|
D|-------------------------------------11-13-11-|
A|-------9-10/12--10-9-10-9----9-10/12----------|
E|-10-10--------------------10------------------|

G|-------------------------------------------10-12-13-12-13-12~-||
D|-------------------------------------11-13--------------------||
A|-------9-10/12--10-9-10-9----9-10/12--------------------------||
E|-10-10--------------------10----------------------------------||

Final
G|-------------------7h8-9~-||
D|--------------------------||
A|-------------5h7-7--------||
E|-0-0-0-5h7-7--------------||
Suggest correction
Give kudos to tab author, rate the tab!
1 2 3 4 5
comments
print report bad tab
guest
You may want to rate the tab now too:
select rating
Wanna post a correction for this tab? Suggest correction