Oops, an error
Loading. Please wait.

Molotov Cocktail Party Tab

by Molotov
321 views 3 this week
no commentswrite comment
1 2 3 4 5
3 more votes to show rating
add to favorites
×
Save as Personal and add changes to this tab that will be seen only by you. Learn more ›
×
You can save this tab as Personal to edit and correct it or add notes. All changes will be seen only by you. Learn more »
save as personal
new!
launch autoscroll
font size
0
reset
how to read this tab
guitar tuner
Autoscroll
slow
fast
+/-
esc
set tempo
stop
b= bend         h= hammer
r= release      p= pull
/= slide up     x= palm mute
\= slide down   
~= vibrato

INTRO:

   Esto se toca al principio de la canción.                                         
E|------|
B|------|
G|------|
D|-/9~\-|
A|-/9~\-|
E|------|

VERSO: Solo repite esto durante el verso.

E|--------------------------------------------------|
B|--------------------------------------------------|
G|--------------------------------------------------|
D|-------------------5r0----------------------5r0---|
A|-------------5h7-7-----7--------------5h7-7-----7-|
E|-0-0-0-5h7-7--------------0-0-0-5h7-7-------------|

E|----------------------------------------------------|
B|----------------------------------------------------|
G|----------------------------------------------------|
D|-------------------5r0------------------------------|
A|-------------5h7-7-----7--------------5-------5-----|
E|-0-0-0-5h7-7--------------0-0-0-5h7-7---7-5-4---7-5-|

CORO: Repitelo esto varias veces.

E|--------------------------------------------------------------------------|
B|--------------------------------------------------------------------------|
G|--------------------------------------------------------------------------|
D|-7-7-7-7-7-7-7-7-7-7-7-7-7-7-7-7-7-7-7-7-7--/11~--------------------------|
A|-0-0-0-0-0-0-0-0-0-0-0-0-0-0-0-0-0-0-0-0-0--------------------------------|
E|--------------------------------------------------------------------------|

Despues se repite el verso.
Luego el coro.

Despues otra vez el verso.

Esto se toca en una parte de este verso.

E|---------------------------|
B|---------------------------|
G|-8/9\8/9\8/9\8/9\8/9\8/9/8-|
D|---------------------------|
A|---------------------------|
E|---------------------------|

Otra vez el coro.

SOLO:

E|-------------------------------------------------------|
B|----------------------------------------------13-15-13-|
G|-------11-12-12/14-12-11-12-11----11-12-12/14----------|
D|-12-12-------------------------12----------------------|
A|-------------------------------------------------------|
E|-------------------------------------------------------|

E|---------------------------------------------|
B|----------------------------------------/15~-|
G|-------11-12-12/14-12-11-12-11----11-12------|
D|-12-12-------------------------12------------|
A|---------------------------------------------|
E|---------------------------------------------|

E|-------------------------------------------------------|
B|----------------------------------------------13-15-13-|
G|-------11-12-12/14-12-11-12-11----11-12-12/14----------|
D|-12-12-------------------------12----------------------|
A|-------------------------------------------------------|
E|-------------------------------------------------------|

E|-------------------------12-14-15-14-15-14~-|
B|-------------------13-15--------------------|
G|-------11-12-12/14--------------------------|
D|-12-12--------------------------------------|
A|--------------------------------------------|
E|--------------------------------------------|

Despues del solo se repite el coro y luego sigue el final.

FINAL:

E|-------------------------------------|
B|-------------------------------------|
G|-------------------7h8-9~------------|
D|-------------------------------------|
A|-------------5h7-7-------------------|
E|-0-0-0-5h7-7-------------------------|

Comentarios, correcciones o dudas? Escriban a mi e-mail.
Suggest correction
Give kudos to tab author, rate the tab!
1 2 3 4 5
comments
print report bad tab
guest
Wanna post a correction for this tab? Suggest correction