Oops, an error
Loading. Please wait.

No Deje Que El Peje Lo Apendeje Bass Tab

104 views 1 this week
no commentswrite comment
1 2 3 4 5
3 more votes to show rating
add to favorites
launch autoscroll
font size
0
reset
guitar tuner
×
Best way to learn
"No Deje Que El Peje Lo Apendeje"
Autoscroll
slow
fast
+/-
esc
set tempo
stop
Hola amigos molotoveros aca les dejo esta rola facil para tocar
del nuevo cd de lo molochos "Eeternamiente" no compres pirata
no seas rata .

 No Deje Que El Peje Lo Apendeje

 Intro:(x4)

 G|-------------------------------------------
 D|5--------------------5---------------------
 A|-------------------------------------------
 E|--777777-57777-57777---777777-57777-57777--

Esto es cuando empieza la bata cmabia una nota G por E (sol x mi)

Intro:(x6)

 G|---------------------------------------------
 D|---------------------------------------------
 A|---------------------------------------------
 E|-0-777777-57777-57777-0-777777-57777-57777---

Verso 1:(x5)

 G|-----------------------------------
 D|-----------------------------------
 A|-----------------------------------
 E|-555-557-5570-3/555~5555h75550~----

Coro 2:(x8)

 G|-------------------------------------------
 D|5--------------------5---------------------
 A|-------------------------------------------
 E|--777777-57777-57777---777777-57777-57777--

 Verso 2:(x3)

 G|-----------------------------------
 D|-----------------------------------
 A|-----------------------------------
 E|-555-557-5570-3/555~5555h75550~----

 G|-----------------------------------
 D|-----------------------------------
 A|-----------------------------------
 E|-3/555~5555h75550~-3/555~5555h7----

 Coro 2:(x)

 G|-------------------------------------------
 D|5--------------------5---------------------
 A|-------------------------------------------
 E|--777777-57777-57777---777777-57777-57777--

 Solo de bateria:

 G|---------------------------------------------------------
 D|---------------------------------------------------------
 A|--------------7777-----------------7777----------7777777-
 E|0~-----------------0~-----------05-----------------------

 Cuando canta Randy , Verso 3:(x4)

 G|-----------------------------------
 D|-----------------------------------
 A|-----------------------------------
 E|-555-557-5570-3/555~5555h75550~----

 Coro 3:(x15) Hasta el final

 G|-------------------------------------------
 D|5--------------------5---------------------
 A|-------------------------------------------
 E|--777777-57777-57777---777777-57777-57777--

  VIVA MEXICO CABRONES !

Para cualquier duda escribime a vito_molotov@

Pergamino /Bs As /Argentina .
Suggest correction
Give kudos to tab author, rate the tab!
1 2 3 4 5
comments
print report bad tab
guest
You may want to rate the tab now too:
select rating
Wanna post a correction for this tab? Suggest correction