Oops, an error
Loading. Please wait.

No Deje Que El Peje Lo Apendeje Tab

16 views 1 this week
no commentswrite comment
1 2 3 4 5
3 more votes to show rating
add to favorites
launch autoscroll
font size
0
reset
how to read this tab
guitar tuner
Autoscroll
slow
fast
+/-
esc
set tempo
stop
Help us to improve Ultimate-Guitar.com Take our survey!
×
Author
Difficulty
novice
[Intro]

La guitarra entra después de 6 barras de bajo.

e|-----------------------------------------------|
B|-------------------10/12-12-12--10/12-12-12----|
G|--/9---9-9--9-9-9--9-/11-11-11--9-/11-11-11----|
D|--/9---9-9--9-9-9--7-/9--9--9---7-/9--9--9-----|
A|--/7---7-7--7-7-7------------------------------|
E|-----------------------------------------------|...x4

[Verso]

"No pagues el IVA a la pandilla..."

e|----------------|-----------------------------------|
B|----------------|-----------------------------------|
G|----------------|-----------------------------------|
D|----------------|----5/7--7-7--7-7-7--7/9--2-2------|
A|----------------|----5/7--7-7--7-7-7--7/9--2-2------|
E|----------------|----3/5--5-5--5-5-5--5/7--0-0------|...x4

[Coro]

"No deje que el Afore se evapore..."

e|-----------------------------------------------|
B|-------------------10/12-12-12--10/12-12-12----|
G|--/9---9-9--9-9-9--9-/11-11-11--9-/11-11-11----|
D|--/9---9-9--9-9-9--7-/9--9--9---7-/9--9--9-----|
A|--/7---7-7--7-7-7------------------------------|
E|-----------------------------------------------|...x8

[Verso 2]

"Se cuide la basura te tortura..."

e|----------------|-----------------------------------|
B|----------------|-----------------------------------|
G|----------------|-----------------------------------|
D|----------------|----5/7--7-7--7-7-7--7/9--2-2------|
A|----------------|----5/7--7-7--7-7-7--7/9--2-2------|
E|----------------|----3/5--5-5--5-5-5--5/7--0-0------|...x3

e|--------------------------------------------------|
B|--------------------------------------------------|
G|--------------------------------------------------|
D|----5/7--7-7--7-7-7--7/9--2-2---5/7--7-7--7-7-7---|
A|----5/7--7-7--7-7-7--7/9--2-2---5/7--7-7--7-7-7---|
E|----3/5--5-5--5-5-5--5/7--0-0---3/5--5-5--5-5-5---|

[Coro 2]

"No deje que el Afore se evapore..."

e|-----------------------------------------------|
B|-------------------10/12-12-12--10/12-12-12----|
G|--/9---9-9--9-9-9--9-/11-11-11--9-/11-11-11----|
D|--/9---9-9--9-9-9--7-/9--9--9---7-/9--9--9-----|
A|--/7---7-7--7-7-7------------------------------|
E|-----------------------------------------------|...x8

Se usa un killswitch o con el selector de pastilla.

e|----0L----|
B|----0L----|
G|----9L----|
D|----9L----|
A|----7L----|
E|----0L----|

[Puente]

Se toca un poco antes de que empiece a cantar Randy.

e|----0L----|
B|----0L----|
G|----9L----|
D|----9L----|
A|----7L----|
E|----0L----|

"Que no te hagan trampa los del campa..."

e|-----------------------------------|
B|-----------------------------------|
G|-----------------------------------|
D|----5/7--7-7--7-7-7--7/9--2-2------|
A|----5/7--7-7--7-7-7--7/9--2-2------|
E|----3/5--5-5--5-5-5--5/7--0-0------|

[Outro]


"No deje que el Afore se evapore..."

e|-----------------------------------------------|
B|-------------------10/12-12-12--10/12-12-12----|
G|--/9---9-9--9-9-9--9-/11-11-11--9-/11-11-11----|
D|--/9---9-9--9-9-9--7-/9--9--9---7-/9--9--9-----|
A|--/7---7-7--7-7-7------------------------------|
E|-----------------------------------------------|...x15

e|--------|
B|--------|
G|----9---|
D|----9---|
A|----7---|
E|--------|



************************************

| /   Slide 
| L   Deja sonar  

************************************
Suggest correction
Give kudos to tab author, rate the tab!
1 2 3 4 5
comments
print report bad tab
guest
You may want to rate the tab now too:
select rating
Wanna post a correction for this tab? Suggest correction